  0
SECTION
  2
HEADER
  9
$ACADVER
  1
AC1009
  9
$DWGCODEPAGE
  3
ansi_1252
  9
$INSBASE
 10
0.0
 20
0.0
 30
0.0
  9
$EXTMIN
 10
0.0
 20
0.0
 30
0.0
  9
$EXTMAX
 10
2100.0
 20
1485.0
 30
0.0
  9
$LIMMIN
 10
0.0
 20
0.0
  9
$LIMMAX
 10
2100.0
 20
1485.0
  9
$ORTHOMODE
 70
     0
  9
$REGENMODE
 70
     1
  9
$FILLMODE
 70
     1
  9
$QTEXTMODE
 70
     0
  9
$MIRRTEXT
 70
     1
  9
$DRAGMODE
 70
     2
  9
$LTSCALE
 40
5.0
  9
$OSMODE
 70
    37
  9
$ATTMODE
 70
     1
  9
$TEXTSIZE
 40
25.0
  9
$TRACEWID
 40
1.0
  9
$TEXTSTYLE
  7
STANDARD
  9
$CLAYER
  8
0
  9
$CELTYPE
  6
BYLAYER
  9
$CECOLOR
 62
   256
  9
$DIMSCALE
 40
1.0
  9
$DIMASZ
 40
20.0
  9
$DIMEXO
 40
0.5
  9
$DIMDLI
 40
3.75
  9
$DIMRND
 40
0.0
  9
$DIMDLE
 40
0.0
  9
$DIMEXE
 40
5.0
  9
$DIMTP
 40
0.0
  9
$DIMTM
 40
0.0
  9
$DIMTXT
 40
25.0
  9
$DIMCEN
 40
2.5
  9
$DIMTSZ
 40
0.0
  9
$DIMTOL
 70
     0
  9
$DIMLIM
 70
     0
  9
$DIMTIH
 70
     1
  9
$DIMTOH
 70
     1
  9
$DIMSE1
 70
     0
  9
$DIMSE2
 70
     0
  9
$DIMTAD
 70
     1
  9
$DIMZIN
 70
     0
  9
$DIMBLK
  1

  9
$DIMASO
 70
     1
  9
$DIMSHO
 70
     1
  9
$DIMPOST
  1

  9
$DIMAPOST
  1

  9
$DIMALT
 70
     0
  9
$DIMALTD
 70
     3
  9
$DIMALTF
 40
0.0393700787
  9
$DIMLFAC
 40
1.0
  9
$DIMTOFL
 70
     1
  9
$DIMTVP
 40
0.0
  9
$DIMTIX
 70
     0
  9
$DIMSOXD
 70
     0
  9
$DIMSAH
 70
     0
  9
$DIMBLK1
  1

  9
$DIMBLK2
  1

  9
$DIMSTYLE
  2
ISO-25
  9
$DIMCLRD
 70
     0
  9
$DIMCLRE
 70
     0
  9
$DIMCLRT
 70
     0
  9
$DIMTFAC
 40
1.0
  9
$DIMGAP
 40
7.62
  9
$LUNITS
 70
     2
  9
$LUPREC
 70
     3
  9
$SKETCHINC
 40
1.0
  9
$FILLETRAD
 40
10.0
  9
$AUNITS
 70
     0
  9
$AUPREC
 70
     3
  9
$MENU
  1
.
  9
$ELEVATION
 40
0.0
  9
$PELEVATION
 40
0.0
  9
$THICKNESS
 40
0.0
  9
$LIMCHECK
 70
     0
  9
$CHAMFERA
 40
0.0
  9
$CHAMFERB
 40
0.0
  9
$SKPOLY
 70
     0
  9
$TDCREATE
 40
2458162.617058542
  9
$TDUPDATE
 40
2458162.617059178
  9
$TDINDWG
 40
0.0000000116
  9
$TDUSRTIMER
 40
0.0000000116
  9
$USRTIMER
 70
     1
  9
$ANGBASE
 50
0.0
  9
$ANGDIR
 70
     0
  9
$PDMODE
 70
     0
  9
$PDSIZE
 40
-1.0
  9
$PLINEWID
 40
0.0
  9
$COORDS
 70
     1
  9
$SPLFRAME
 70
     0
  9
$SPLINETYPE
 70
     6
  9
$SPLINESEGS
 70
     8
  9
$ATTDIA
 70
     0
  9
$ATTREQ
 70
     1
  9
$HANDLING
 70
     1
  9
$HANDSEED
  5
BD
  9
$SURFTAB1
 70
     6
  9
$SURFTAB2
 70
     6
  9
$SURFTYPE
 70
     6
  9
$SURFU
 70
     6
  9
$SURFV
 70
     6
  9
$UCSNAME
  2

  9
$UCSORG
 10
0.0
 20
0.0
 30
0.0
  9
$UCSXDIR
 10
1.0
 20
0.0
 30
0.0
  9
$UCSYDIR
 10
0.0
 20
1.0
 30
0.0
  9
$PUCSNAME
  2

  9
$PUCSORG
 10
0.0
 20
0.0
 30
0.0
  9
$PUCSXDIR
 10
1.0
 20
0.0
 30
0.0
  9
$PUCSYDIR
 10
0.0
 20
1.0
 30
0.0
  9
$USERI1
 70
     0
  9
$USERI2
 70
     0
  9
$USERI3
 70
     0
  9
$USERI4
 70
     0
  9
$USERI5
 70
     0
  9
$USERR1
 40
0.0
  9
$USERR2
 40
0.0
  9
$USERR3
 40
0.0
  9
$USERR4
 40
0.0
  9
$USERR5
 40
0.0
  9
$WORLDVIEW
 70
     1
  9
$SHADEDGE
 70
     3
  9
$SHADEDIF
 70
    70
  9
$TILEMODE
 70
     1
  9
$MAXACTVP
 70
    64
  9
$PLIMCHECK
 70
     0
  9
$PEXTMIN
 10
1.0000000000E+20
 20
1.0000000000E+20
 30
1.0000000000E+20
  9
$PEXTMAX
 10
-1.0000000000E+20
 20
-1.0000000000E+20
 30
-1.0000000000E+20
  9
$PLIMMIN
 10
0.0
 20
0.0
  9
$PLIMMAX
 10
420.0
 20
297.0
  9
$UNITMODE
 70
     0
  9
$VISRETAIN
 70
     1
  9
$PLINEGEN
 70
     0
  9
$PSLTSCALE
 70
     1
  0
ENDSEC
  0
SECTION
  2
TABLES
  0
TABLE
  2
VPORT
 70
     1
  0
VPORT
  2
*ACTIVE
 70
     0
 10
0.0
 20
0.0
 11
1.0
 21
1.0
 12
1050.0
 22
742.5
 13
0.0
 23
0.0
 14
10.0
 24
10.0
 15
10.0
 25
10.0
 16
0.0
 26
0.0
 36
1.0
 17
0.0
 27
0.0
 37
0.0
 40
1485.0
 41
1.4141414141
 42
50.0
 43
0.0
 44
0.0
 50
0.0
 51
0.0
 71
     0
 72
  2000
 73
     1
 74
     3
 75
     0
 76
     0
 77
     0
 78
     0
  0
ENDTAB
  0
TABLE
  2
LTYPE
 70
     8
  0
LTYPE
  2
CONTINUOUS
 70
     0
  3
Solid line
 72
    65
 73
     0
 40
0.0
  0
LTYPE
  2
SLD-DURCHGEHEND
 70
     0
  3
SolidWorks Line Style
 72
    65
 73
     0
 40
0.0
  0
LTYPE
  2
SLD-GESTRICHELT
 70
     0
  3
SolidWorks Line Style
 72
    65
 73
     2
 40
1.905
 49
1.27
 49
-0.635
  0
LTYPE
  2
SLD-PHANTOM
 70
     0
  3
SolidWorks Line Style
 72
    65
 73
     6
 40
12.7
 49
6.35
 49
-1.27
 49
1.27
 49
-1.27
 49
1.27
 49
-1.27
  0
LTYPE
  2
SLD-KETTE
 70
     0
  3
SolidWorks Line Style
 72
    65
 73
     4
 40
10.16
 49
6.35
 49
-1.27
 49
1.27
 49
-1.27
  0
LTYPE
  2
SLD-PUNKTSTRICH
 70
     0
  3
SolidWorks Line Style
 72
    65
 73
     4
 40
19.05
 49
15.24
 49
-1.27
 49
1.27
 49
-1.27
  0
LTYPE
  2
SLD-NAHT
 70
     0
  3
SolidWorks Line Style
 72
    65
 73
     2
 40
0.635
 49
0.0
 49
-0.635
  0
LTYPE
  2
SLD-DICKE-DÜNNE-KETTE
 70
     0
  3
SolidWorks Line Style
 72
    65
 73
     4
 40
10.16
 49
6.35
 49
-1.27
 49
1.27
 49
-1.27
  0
ENDTAB
  0
TABLE
  2
LAYER
 70
    10
  0
LAYER
  2
0
 70
     0
 62
     7
  6
CONTINUOUS
  0
LAYER
  2
DEFPOINTS
 70
     0
 62
     7
  6
CONTINUOUS
  0
LAYER
  2
BGTBAS-3
 70
     0
 62
    52
  6
SLD-GESTRICHELT
  0
LAYER
  2
BGTBAS-0
 70
     0
 62
     6
  6
CONTINUOUS
  0
LAYER
  2
BGTBAS-8
 70
     0
 62
     8
  6
SLD-DURCHGEHEND
  0
LAYER
  2
BGTBAS-2A
 70
     0
 62
    30
  6
SLD-DICKE-DÜNNE-KETTE
  0
LAYER
  2
BGTBAS-7
 70
     0
 62
    52
  6
SLD-PUNKTSTRICH
  0
LAYER
  2
BGTBAS-5
 70
     0
 62
     7
  6
SLD-DURCHGEHEND
  0
LAYER
  2
BGTBAS-4
 70
     0
 62
   252
  6
SLD-DURCHGEHEND
  0
LAYER
  2
BGTBAS-6
 70
     0
 62
     7
  6
SLD-DURCHGEHEND
  0
ENDTAB
  0
TABLE
  2
STYLE
 70
     1
  0
STYLE
  2
STANDARD
 70
     0
 40
0.0
 41
1.0
 50
0.0
 71
     0
 42
25.0
  3
txt
  4

  0
ENDTAB
  0
TABLE
  2
VIEW
 70
     0
  0
ENDTAB
  0
TABLE
  2
UCS
 70
     0
  0
ENDTAB
  0
TABLE
  2
APPID
 70
     1
  0
APPID
  2
ACAD
 70
     0
  0
ENDTAB
  0
TABLE
  2
DIMSTYLE
 70
     1
  0
DIMSTYLE
  2
ISO-25
 70
     0
  3

  4

  5

  6

  7

 40
1.0
 41
2.5
 42
0.625
 43
3.75
 44
1.25
 45
0.0
 46
0.0
 47
0.0
 48
0.0
140
2.5
141
2.5
142
0.0
143
0.0393700787
144
1.0
145
0.0
146
1.0
147
0.625
 71
     0
 72
     0
 73
     0
 74
     0
 75
     0
 76
     0
 77
     1
 78
     8
170
     0
171
     3
172
     1
173
     0
174
     0
175
     0
176
     0
177
     0
178
     0
  0
ENDTAB
  0
ENDSEC
  0
SECTION
  2
BLOCKS
  0
BLOCK
  8
0
  2
$MODEL_SPACE
 70
     0
 10
0.0
 20
0.0
 30
0.0
  3
$MODEL_SPACE
  1

  0
ENDBLK
  5
21
  8
0
  0
BLOCK
 67
     1
  8
0
  2
$PAPER_SPACE
 70
     0
 10
0.0
 20
0.0
 30
0.0
  3
$PAPER_SPACE
  1

  0
ENDBLK
  5
1D
 67
     1
  8
0
  0
BLOCK
  8
0
  2
SW_NOTE_0
 70
     0
 10
0.0
 20
0.0
 30
0.0
  3
SW_NOTE_0
  1

  0
TEXT
  5
81
  8
BGTBAS-6
 62
     0
 10
0.0
 20
8.831501548
 30
0.0
 40
25.0
  1
LDB1030 R
 41
0.7
 11
0.0
 21
0.0
 31
0.0
 73
     1
  0
TEXT
  5
82
  8
BGTBAS-6
 62
     0
 10
0.0
 20
-31.1685003519
 30
0.0
 40
25.0
  1
Z-34.11-201
 41
0.7
 11
0.0
 21
-40.0000018999
 31
0.0
 73
     1
  0
ENDBLK
  5
80
  8
0
  0
ENDSEC
  0
SECTION
  2
ENTITIES
  0
INSERT
  5
83
  8
BGTBAS-6
  2
SW_NOTE_0
 10
881.5341669688
 20
1197.0554166461
 30
0.0
  0
LINE
  5
84
  8
BGTBAS-7
 10
548.0840044743
 20
798.6452856499
 30
0.0
 11
558.0840044743
 21
798.6452856499
 31
0.0
  0
LINE
  5
85
  8
BGTBAS-7
 10
558.0840044743
 20
798.6452856499
 30
0.0
 11
558.0840044743
 21
815.9215607157
 31
0.0
  0
LINE
  5
86
  8
BGTBAS-7
 10
445.0840044743
 20
798.6452856499
 30
0.0
 11
435.0840044743
 21
798.6452856499
 31
0.0
  0
LINE
  5
87
  8
BGTBAS-7
 10
435.0840044743
 20
798.6452856499
 30
0.0
 11
435.0840044743
 21
815.9215607157
 31
0.0
  0
LINE
  5
88
  8
BGTBAS-0
 10
588.0840044743
 20
728.7952856499
 30
0.0
 11
993.0840044743
 21
728.7952856499
 31
0.0
  0
LINE
  5
89
  8
BGTBAS-0
 10
993.0840044743
 20
868.4952856499
 30
0.0
 11
588.0840044743
 21
868.4952856499
 31
0.0
  0
LINE
  5
8A
  8
BGTBAS-0
 10
548.0840044743
 20
648.6452856499
 30
0.0
 11
588.0840044743
 21
648.6452856499
 31
0.0
  0
LINE
  5
8B
  8
BGTBAS-0
 10
588.0840044743
 20
948.6452856499
 30
0.0
 11
548.0840044743
 21
948.6452856499
 31
0.0
  0
LINE
  5
8C
  8
BGTBAS-0
 10
545.0840044743
 20
682.1452856499
 30
0.0
 11
548.0840044743
 21
682.1452856499
 31
0.0
  0
LINE
  5
8D
  8
BGTBAS-0
 10
548.0840044743
 20
915.1452856499
 30
0.0
 11
545.0840044743
 21
915.1452856499
 31
0.0
  0
LINE
  5
8E
  8
BGTBAS-0
 10
545.0840044743
 20
908.1452856499
 30
0.0
 11
445.0840044743
 21
908.1452856499
 31
0.0
  0
LINE
  5
8F
  8
BGTBAS-0
 10
445.0840044743
 20
689.1452856499
 30
0.0
 11
545.0840044743
 21
689.1452856499
 31
0.0
  0
LINE
  5
90
  8
BGTBAS-0
 10
445.0840044743
 20
904.6452856499
 30
0.0
 11
440.0840044743
 21
904.6452856499
 31
0.0
  0
LINE
  5
91
  8
BGTBAS-0
 10
440.0840044743
 20
692.6452856499
 30
0.0
 11
445.0840044743
 21
692.6452856499
 31
0.0
  0
LINE
  5
92
  8
BGTBAS-0
 10
440.0840044743
 20
889.9642488557
 30
0.0
 11
437.0840044743
 21
889.9642488557
 31
0.0
  0
LINE
  5
93
  8
BGTBAS-0
 10
437.0840044743
 20
867.9642488557
 30
0.0
 11
440.0840044743
 21
867.9642488557
 31
0.0
  0
LINE
  5
94
  8
BGTBAS-0
 10
440.0840044743
 20
808.6452856499
 30
0.0
 11
438.0840044743
 21
808.6452856499
 31
0.0
  0
LINE
  5
95
  8
BGTBAS-0
 10
438.0840044743
 20
788.6452856499
 30
0.0
 11
440.0840044743
 21
788.6452856499
 31
0.0
  0
LINE
  5
96
  8
BGTBAS-0
 10
993.0840044743
 20
868.4952856499
 30
0.0
 11
993.0840044743
 21
728.7952856499
 31
0.0
  0
LINE
  5
97
  8
BGTBAS-0
 10
548.0840044743
 20
948.6452856499
 30
0.0
 11
548.0840044743
 21
648.6452856499
 31
0.0
  0
LINE
  5
98
  8
BGTBAS-0
 10
588.0840044743
 20
948.6452856499
 30
0.0
 11
588.0840044743
 21
648.6452856499
 31
0.0
  0
LINE
  5
99
  8
BGTBAS-0
 10
545.0840044743
 20
915.1452856499
 30
0.0
 11
545.0840044743
 21
682.1452856499
 31
0.0
  0
LINE
  5
9A
  8
BGTBAS-0
 10
445.0840044743
 20
798.6309070748
 30
0.0
 11
445.0840044743
 21
908.1452856499
 31
0.0
  0
LINE
  5
9B
  8
BGTBAS-0
 10
445.0840044743
 20
689.1452856499
 30
0.0
 11
445.0840044743
 21
798.6309070748
 31
0.0
  0
LINE
  5
9C
  8
BGTBAS-0
 10
440.0840044743
 20
798.6452856499
 30
0.0
 11
440.0840044743
 21
904.6452856499
 31
0.0
  0
LINE
  5
9D
  8
BGTBAS-0
 10
440.0840044743
 20
692.6452856499
 30
0.0
 11
440.0840044743
 21
798.6452856499
 31
0.0
  0
LINE
  5
9E
  8
BGTBAS-0
 10
437.0840044743
 20
889.9642488557
 30
0.0
 11
437.0840044743
 21
867.9642488557
 31
0.0
  0
LINE
  5
9F
  8
BGTBAS-0
 10
438.0840044743
 20
808.6452856499
 30
0.0
 11
438.0840044743
 21
788.6452856499
 31
0.0
  0
LINE
  5
A0
  8
BGTBAS-0
 10
438.0840044743
 20
793.8248091442
 30
0.0
 11
431.6840044743
 21
793.8248091442
 31
0.0
  0
LINE
  5
A1
  8
BGTBAS-0
 10
431.6840044743
 20
803.0594341603
 30
0.0
 11
431.6840044743
 21
793.8248091442
 31
0.0
  0
LINE
  5
A2
  8
BGTBAS-0
 10
438.0840044743
 20
803.0594341603
 30
0.0
 11
431.6840044743
 21
803.0594341603
 31
0.0
  0
LINE
  5
A3
  8
BGTBAS-0
 10
438.0840044743
 20
807.879910666
 30
0.0
 11
431.6840044743
 21
807.879910666
 31
0.0
  0
LINE
  5
A4
  8
BGTBAS-0
 10
431.6840044743
 20
807.879910666
 30
0.0
 11
431.6840044743
 21
803.0594341603
 31
0.0
  0
LINE
  5
A5
  8
BGTBAS-0
 10
438.0840044743
 20
789.4106606339
 30
0.0
 11
431.6840044743
 21
789.4106606339
 31
0.0
  0
LINE
  5
A6
  8
BGTBAS-0
 10
431.6840044743
 20
793.8248091442
 30
0.0
 11
431.6840044743
 21
789.4106606339
 31
0.0
  0
LINE
  5
A7
  8
BGTBAS-7
 10
1313.2446810248
 20
798.6452856499
 30
0.0
 11
1332.8170702788
 21
798.6452856499
 31
0.0
  0
LINE
  5
A8
  8
BGTBAS-7
 10
1313.2446810248
 20
798.6452856499
 30
0.0
 11
1313.2446810248
 21
815.9215607157
 31
0.0
  0
LINE
  5
A9
  8
BGTBAS-7
 10
1313.2446810248
 20
798.6452856499
 30
0.0
 11
1293.6722917708
 21
798.6452856499
 31
0.0
  0
LINE
  5
AA
  8
BGTBAS-7
 10
1313.2446810248
 20
798.6452856499
 30
0.0
 11
1313.2446810248
 21
815.9215607157
 31
0.0
  0
CIRCLE
  5
AB
  8
BGTBAS-0
 10
1313.2446810248
 20
798.6452856499
 30
0.0
 40
150.0
  0
CIRCLE
  5
AC
  8
BGTBAS-0
 10
1313.2446810248
 20
798.6452856499
 30
0.0
 40
116.5000000000001
  0
CIRCLE
  5
AD
  8
BGTBAS-0
 10
1313.2446810248
 20
798.6452856499
 30
0.0
 40
109.5000000000002
  0
CIRCLE
  5
AE
  8
BGTBAS-0
 10
1313.2446810248
 20
798.6452856499
 30
0.0
 40
106.0
  0
LINE
  5
AF
  8
BGTBAS-0
 10
1309.2446810248
 20
876.6548477789
 30
0.0
 11
1309.2446810248
 21
881.2736499324
 31
0.0
  0
LINE
  5
B0
  8
BGTBAS-0
 10
1313.2446810248
 20
874.3454467021
 30
0.0
 11
1309.2446810248
 21
876.6548477789
 31
0.0
  0
LINE
  5
B1
  8
BGTBAS-0
 10
1317.2446810248
 20
876.6548477789
 30
0.0
 11
1313.2446810248
 21
874.3454467021
 31
0.0
  0
LINE
  5
B2
  8
BGTBAS-0
 10
1317.2446810248
 20
881.2736499324
 30
0.0
 11
1317.2446810248
 21
876.6548477789
 31
0.0
  0
LINE
  5
B3
  8
BGTBAS-0
 10
1313.2446810248
 20
883.5830510092
 30
0.0
 11
1317.2446810248
 21
881.2736499324
 31
0.0
  0
LINE
  5
B4
  8
BGTBAS-0
 10
1309.2446810248
 20
881.2736499324
 30
0.0
 11
1313.2446810248
 21
883.5830510092
 31
0.0
  0
CIRCLE
  5
B5
  8
BGTBAS-0
 10
1313.2446810248
 20
878.9642488557
 30
0.0
 40
10.99999999999977
  0
CIRCLE
  5
B6
  8
BGTBAS-0
 10
1313.2446810248
 20
798.6452856499
 30
0.0
 40
10.00000000000011
  0
LINE
  5
B7
  8
BGTBAS-0
 10
1305.1299643777
 20
794.2311371396
 30
0.0
 11
1305.3645579552
 21
803.4657621556
 31
0.0
  0
LINE
  5
B8
  8
BGTBAS-0
 10
1305.3645579552
 20
803.4657621556
 30
0.0
 11
1313.4792746023
 21
807.879910666
 31
0.0
  0
LINE
  5
B9
  8
BGTBAS-0
 10
1313.4792746023
 20
807.879910666
 30
0.0
 11
1321.3593976718
 21
803.0594341603
 31
0.0
  0
LINE
  5
BA
  8
BGTBAS-0
 10
1321.3593976718
 20
803.0594341603
 30
0.0
 11
1321.1248040943
 21
793.8248091442
 31
0.0
  0
LINE
  5
BB
  8
BGTBAS-0
 10
1321.1248040943
 20
793.8248091442
 30
0.0
 11
1313.0100874473
 21
789.4106606339
 31
0.0
  0
LINE
  5
BC
  8
BGTBAS-0
 10
1313.0100874473
 20
789.4106606339
 30
0.0
 11
1305.1299643777
 21
794.2311371396
 31
0.0
  0
ENDSEC
  0
EOF
