  0
SECTION
  2
HEADER
  9
$ACADVER
  1
AC1015
  9
$ACADMAINTVER
 70
    10
  9
$DWGCODEPAGE
  3
ANSI_1252
  9
$INSBASE
 10
0.0
 20
0.0
 30
0.0
  9
$EXTMIN
 10
647.2426532624298
 20
24.16565827332431
 30
0.0
  9
$EXTMAX
 10
693.5959061711405
 20
74.16565827332431
 30
0.0
  9
$LIMMIN
 10
0.0
 20
0.0
  9
$LIMMAX
 10
12.0
 20
9.0
  9
$ORTHOMODE
 70
     1
  9
$REGENMODE
 70
     1
  9
$FILLMODE
 70
     1
  9
$QTEXTMODE
 70
     0
  9
$MIRRTEXT
 70
     1
  9
$LTSCALE
 40
25.0
  9
$ATTMODE
 70
     1
  9
$TEXTSIZE
 40
5.0
  9
$TRACEWID
 40
0.05
  9
$TEXTSTYLE
  7
STANDARD
  9
$CLAYER
  8
03-KONTUR
  9
$CELTYPE
  6
BYLAYER
  9
$CECOLOR
 62
   256
  9
$CELTSCALE
 40
1.0
  9
$DISPSILH
 70
     0
  9
$DIMSCALE
 40
1.0
  9
$DIMASZ
 40
4.0
  9
$DIMEXO
 40
0.0625
  9
$DIMDLI
 40
0.0
  9
$DIMRND
 40
0.0
  9
$DIMDLE
 40
0.0
  9
$DIMEXE
 40
2.0
  9
$DIMTP
 40
0.0
  9
$DIMTM
 40
0.0
  9
$DIMTXT
 40
3.5
  9
$DIMCEN
 40
0.09
  9
$DIMTSZ
 40
0.0
  9
$DIMTOL
 70
     0
  9
$DIMLIM
 70
     0
  9
$DIMTIH
 70
     0
  9
$DIMTOH
 70
     0
  9
$DIMSE1
 70
     0
  9
$DIMSE2
 70
     0
  9
$DIMTAD
 70
     1
  9
$DIMZIN
 70
     0
  9
$DIMBLK
  1

  9
$DIMASO
 70
     1
  9
$DIMSHO
 70
     1
  9
$DIMPOST
  1

  9
$DIMAPOST
  1

  9
$DIMALT
 70
     0
  9
$DIMALTD
 70
     2
  9
$DIMALTF
 40
25.4
  9
$DIMLFAC
 40
1.0
  9
$DIMTOFL
 70
     0
  9
$DIMTVP
 40
0.0
  9
$DIMTIX
 70
     0
  9
$DIMSOXD
 70
     0
  9
$DIMSAH
 70
     0
  9
$DIMBLK1
  1

  9
$DIMBLK2
  1

  9
$DIMSTYLE
  2
STANDARD
  9
$DIMCLRD
 70
     1
  9
$DIMCLRE
 70
     1
  9
$DIMCLRT
 70
     1
  9
$DIMTFAC
 40
1.0
  9
$DIMGAP
 40
2.0
  9
$DIMJUST
 70
     0
  9
$DIMSD1
 70
     0
  9
$DIMSD2
 70
     0
  9
$DIMTOLJ
 70
     1
  9
$DIMTZIN
 70
     0
  9
$DIMALTZ
 70
     0
  9
$DIMALTTZ
 70
     0
  9
$DIMUPT
 70
     0
  9
$DIMDEC
 70
     4
  9
$DIMTDEC
 70
     4
  9
$DIMALTU
 70
     2
  9
$DIMALTTD
 70
     2
  9
$DIMTXSTY
  7
STANDARD
  9
$DIMAUNIT
 70
     0
  9
$DIMADEC
 70
     0
  9
$DIMALTRND
 40
0.0
  9
$DIMAZIN
 70
     0
  9
$DIMDSEP
 70
    46
  9
$DIMATFIT
 70
     3
  9
$DIMFRAC
 70
     0
  9
$DIMLDRBLK
  1

  9
$DIMLUNIT
 70
     2
  9
$DIMLWD
 70
    -2
  9
$DIMLWE
 70
    -2
  9
$DIMTMOVE
 70
     0
  9
$LUNITS
 70
     2
  9
$LUPREC
 70
     4
  9
$SKETCHINC
 40
0.1
  9
$FILLETRAD
 40
0.0
  9
$AUNITS
 70
     0
  9
$AUPREC
 70
     0
  9
$MENU
  1
.
  9
$ELEVATION
 40
0.0
  9
$PELEVATION
 40
0.0
  9
$THICKNESS
 40
0.0
  9
$LIMCHECK
 70
     0
  9
$CHAMFERA
 40
3.0
  9
$CHAMFERB
 40
3.0
  9
$CHAMFERC
 40
0.0
  9
$CHAMFERD
 40
0.0
  9
$SKPOLY
 70
     0
  9
$TDCREATE
 40
2450597.539778125
  9
$TDUCREATE
 40
2450597.498111458
  9
$TDUPDATE
 40
2453013.482307048
  9
$TDUUPDATE
 40
2453013.440640382
  9
$TDINDWG
 40
0.4543034259
  9
$TDUSRTIMER
 40
0.4543034259
  9
$USRTIMER
 70
     1
  9
$ANGBASE
 50
0.0
  9
$ANGDIR
 70
     0
  9
$PDMODE
 70
     0
  9
$PDSIZE
 40
0.0
  9
$PLINEWID
 40
0.0
  9
$SPLFRAME
 70
     0
  9
$SPLINETYPE
 70
     6
  9
$SPLINESEGS
 70
     8
  9
$HANDSEED
  5
2641
  9
$SURFTAB1
 70
     6
  9
$SURFTAB2
 70
     6
  9
$SURFTYPE
 70
     6
  9
$SURFU
 70
     6
  9
$SURFV
 70
     6
  9
$UCSBASE
  2

  9
$UCSNAME
  2

  9
$UCSORG
 10
0.0
 20
0.0
 30
0.0
  9
$UCSXDIR
 10
1.0
 20
0.0
 30
0.0
  9
$UCSYDIR
 10
0.0
 20
1.0
 30
0.0
  9
$UCSORTHOREF
  2

  9
$UCSORTHOVIEW
 70
     0
  9
$UCSORGTOP
 10
0.0
 20
0.0
 30
0.0
  9
$UCSORGBOTTOM
 10
0.0
 20
0.0
 30
0.0
  9
$UCSORGLEFT
 10
0.0
 20
0.0
 30
0.0
  9
$UCSORGRIGHT
 10
0.0
 20
0.0
 30
0.0
  9
$UCSORGFRONT
 10
0.0
 20
0.0
 30
0.0
  9
$UCSORGBACK
 10
0.0
 20
0.0
 30
0.0
  9
$PUCSBASE
  2

  9
$PUCSNAME
  2

  9
$PUCSORG
 10
0.0
 20
0.0
 30
0.0
  9
$PUCSXDIR
 10
1.0
 20
0.0
 30
0.0
  9
$PUCSYDIR
 10
0.0
 20
1.0
 30
0.0
  9
$PUCSORTHOREF
  2

  9
$PUCSORTHOVIEW
 70
     0
  9
$PUCSORGTOP
 10
0.0
 20
0.0
 30
0.0
  9
$PUCSORGBOTTOM
 10
0.0
 20
0.0
 30
0.0
  9
$PUCSORGLEFT
 10
0.0
 20
0.0
 30
0.0
  9
$PUCSORGRIGHT
 10
0.0
 20
0.0
 30
0.0
  9
$PUCSORGFRONT
 10
0.0
 20
0.0
 30
0.0
  9
$PUCSORGBACK
 10
0.0
 20
0.0
 30
0.0
  9
$USERI1
 70
     0
  9
$USERI2
 70
     0
  9
$USERI3
 70
     0
  9
$USERI4
 70
     0
  9
$USERI5
 70
     0
  9
$USERR1
 40
0.0
  9
$USERR2
 40
0.0
  9
$USERR3
 40
0.0
  9
$USERR4
 40
0.0
  9
$USERR5
 40
0.0
  9
$WORLDVIEW
 70
     1
  9
$SHADEDGE
 70
     3
  9
$SHADEDIF
 70
    70
  9
$TILEMODE
 70
     1
  9
$MAXACTVP
 70
    16
  9
$PINSBASE
 10
0.0
 20
0.0
 30
0.0
  9
$PLIMCHECK
 70
     0
  9
$PEXTMIN
 10
1.000000000000000E+20
 20
1.000000000000000E+20
 30
1.000000000000000E+20
  9
$PEXTMAX
 10
-1.000000000000000E+20
 20
-1.000000000000000E+20
 30
-1.000000000000000E+20
  9
$PLIMMIN
 10
0.0
 20
0.0
  9
$PLIMMAX
 10
12.0
 20
9.0
  9
$UNITMODE
 70
     0
  9
$VISRETAIN
 70
     0
  9
$PLINEGEN
 70
     0
  9
$PSLTSCALE
 70
     1
  9
$TREEDEPTH
 70
  3020
  9
$CMLSTYLE
  2
STANDARD
  9
$CMLJUST
 70
     0
  9
$CMLSCALE
 40
1.0
  9
$PROXYGRAPHICS
 70
     1
  9
$MEASUREMENT
 70
     0
  9
$CELWEIGHT
370
    -1
  9
$ENDCAPS
280
     0
  9
$JOINSTYLE
280
     0
  9
$LWDISPLAY
290
     0
  9
$INSUNITS
 70
     0
  9
$HYPERLINKBASE
  1

  9
$STYLESHEET
  1

  9
$XEDIT
290
     1
  9
$CEPSNTYPE
380
     0
  9
$PSTYLEMODE
290
     1
  9
$FINGERPRINTGUID
  2
{F955C29E-D52D-11D6-B41D-0050BA12178D}
  9
$VERSIONGUID
  2
{EC61DABD-2F2A-4E1A-884A-059A73C2BF14}
  9
$EXTNAMES
290
     1
  9
$PSVPSCALE
 40
0.0
  9
$OLESTARTUP
290
     0
  0
ENDSEC
  0
SECTION
  2
CLASSES
  0
CLASS
  1
OLE2FRAME
  2
AcDbOle2Frame
  3
AutoCAD 2000
 90
    32768
280
     0
281
     1
  0
CLASS
  1
ACDBDICTIONARYWDFLT
  2
AcDbDictionaryWithDefault
  3
AutoCAD 2000
 90
        0
280
     0
281
     0
  0
CLASS
  1
ACDBPLACEHOLDER
  2
AcDbPlaceHolder
  3
AutoCAD 2000
 90
        0
280
     0
281
     0
  0
CLASS
  1
LAYOUT
  2
AcDbLayout
  3
AutoCAD 2000
 90
        0
280
     0
281
     0
  0
ENDSEC
  0
SECTION
  2
TABLES
  0
TABLE
  2
VPORT
  5
14F3
330
0
100
AcDbSymbolTable
 70
     3
  0
VPORT
  5
2640
330
14F3
100
AcDbSymbolTableRecord
100
AcDbViewportTableRecord
  2
*Active
 70
     0
 10
0.0
 20
0.0
 11
1.0
 21
1.0
 12
670.410483561764
 22
49.16559640008228
 13
0.0
 23
0.0
 14
1.0
 24
1.0
 15
0.0
 25
0.0
 16
0.0
 26
0.0
 36
1.0
 17
0.0
 27
0.0
 37
0.0
 40
50.59027385786456
 41
1.887814313346228
 42
50.0
 43
0.0
 44
0.0
 50
0.0
 51
0.0
 71
     0
 72
   100
 73
     1
 74
     0
 75
     0
 76
     0
 77
     0
 78
     0
281
     0
 65
     1
110
0.0
120
0.0
130
0.0
111
1.0
121
0.0
131
0.0
112
0.0
122
1.0
132
0.0
 79
     0
146
0.0
  0
ENDTAB
  0
TABLE
  2
LTYPE
  5
14F0
330
0
100
AcDbSymbolTable
 70
     3
  0
LTYPE
  5
14FD
330
14F0
100
AcDbSymbolTableRecord
100
AcDbLinetypeTableRecord
  2
BYBLOCK
 70
     0
  3

 72
    65
 73
     0
 40
0.0
  0
LTYPE
  5
14FE
330
14F0
100
AcDbSymbolTableRecord
100
AcDbLinetypeTableRecord
  2
BYLAYER
 70
     0
  3

 72
    65
 73
     0
 40
0.0
  0
LTYPE
  5
14FF
330
14F0
100
AcDbSymbolTableRecord
100
AcDbLinetypeTableRecord
  2
CONTINUOUS
 70
     0
  3
Solid line
 72
    65
 73
     0
 40
0.0
  0
LTYPE
  5
1512
330
14F0
100
AcDbSymbolTableRecord
100
AcDbLinetypeTableRecord
  2
AUSGEZOGEN
 70
     0
  3
_______________________________
 72
    65
 73
     0
 40
0.0
  0
LTYPE
  5
2254
330
14F0
100
AcDbSymbolTableRecord
100
AcDbLinetypeTableRecord
  2
MITTE
 70
     0
  3
____ _ ____ _ ____ _ ____ _ ____ _ ____ _ ____ 
 72
    65
 73
     4
 40
2.0
 49
1.25
 74
     0
 49
-0.25
 74
     0
 49
0.25
 74
     0
 49
-0.25
 74
     0
  0
ENDTAB
  0
TABLE
  2
LAYER
  5
14ED
330
0
100
AcDbSymbolTable
 70
    14
  0
LAYER
  5
14FA
330
14ED
100
AcDbSymbolTableRecord
100
AcDbLayerTableRecord
  2
0
 70
     0
 62
     1
  6
CONTINUOUS
370
    -3
390
254E
  0
LAYER
  5
1D3B
330
14ED
100
AcDbSymbolTableRecord
100
AcDbLayerTableRecord
  2
03-KONTUR
 70
     0
 62
     7
  6
AUSGEZOGEN
370
    -3
390
254E
  0
LAYER
  5
1E78
330
14ED
100
AcDbSymbolTableRecord
100
AcDbLayerTableRecord
  2
01-RAHMEN
 70
     0
 62
     7
  6
CONTINUOUS
370
    -3
390
254E
  0
LAYER
  5
1E7B
330
14ED
100
AcDbSymbolTableRecord
100
AcDbLayerTableRecord
  2
02-SCHRIFTKOPF
 70
     0
 62
     1
  6
CONTINUOUS
370
    -3
390
254E
  0
LAYER
  5
20D0
330
14ED
100
AcDbSymbolTableRecord
100
AcDbLayerTableRecord
  2
11-TEXT25
 70
     0
 62
     1
  6
CONTINUOUS
370
    -3
390
254E
  0
LAYER
  5
2255
330
14ED
100
AcDbSymbolTableRecord
100
AcDbLayerTableRecord
  2
DEFPOINTS
 70
     0
 62
     1
  6
AUSGEZOGEN
290
     0
370
    -3
390
254E
  0
LAYER
  5
2256
330
14ED
100
AcDbSymbolTableRecord
100
AcDbLayerTableRecord
  2
12-TEXT-35
 70
     0
 62
     7
  6
CONTINUOUS
370
    -3
390
254E
  0
LAYER
  5
2258
330
14ED
100
AcDbSymbolTableRecord
100
AcDbLayerTableRecord
  2
05-MITTELLINIEN
 70
     0
 62
     6
  6
MITTE
370
    -3
390
254E
  0
LAYER
  5
2259
330
14ED
100
AcDbSymbolTableRecord
100
AcDbLayerTableRecord
  2
09-BEM-DRAUF
 70
     0
 62
     1
  6
CONTINUOUS
370
    -3
390
254E
  0
LAYER
  5
225D
330
14ED
100
AcDbSymbolTableRecord
100
AcDbLayerTableRecord
  2
06-SCHRAFFUR
 70
     0
 62
     6
  6
CONTINUOUS
370
    -3
390
254E
  0
LAYER
  5
225E
330
14ED
100
AcDbSymbolTableRecord
100
AcDbLayerTableRecord
  2
03-KONTUR1
 70
     0
 62
     5
  6
CONTINUOUS
370
    -3
390
254E
  0
LAYER
  5
24E4
330
14ED
100
AcDbSymbolTableRecord
100
AcDbLayerTableRecord
  2
09-BEMAßUNG
 70
     0
 62
     1
  6
CONTINUOUS
370
    -3
390
254E
  0
LAYER
  5
257F
330
14ED
100
AcDbSymbolTableRecord
100
AcDbLayerTableRecord
  2
10-TEXT25
 70
     0
 62
     1
  6
CONTINUOUS
370
    -3
390
254E
  0
LAYER
  5
25CA
330
14ED
100
AcDbSymbolTableRecord
100
AcDbLayerTableRecord
  2
09-INDIZEES
 70
     0
 62
     1
  6
CONTINUOUS
370
    -3
390
254E
  0
ENDTAB
  0
TABLE
  2
STYLE
  5
14EE
330
0
100
AcDbSymbolTable
 70
     2
  0
STYLE
  5
14FB
330
14EE
100
AcDbSymbolTableRecord
100
AcDbTextStyleTableRecord
  2
STANDARD
 70
     0
 40
0.0
 41
0.8
 50
0.0
 71
     0
 42
5.0
  3
C:\Programme\AutoCAD LT\romans.shx
  4

  0
STYLE
  5
2580
330
14EE
100
AcDbSymbolTableRecord
100
AcDbTextStyleTableRecord
  2
STYLE1
 70
     0
 40
0.0
 41
0.0
 50
0.0
 71
     0
 42
5.0
  3
swisseb.ttf
  4

1001
ACAD
1000
Swis721 Ex BT
1071
 33554466
  0
ENDTAB
  0
TABLE
  2
VIEW
  5
14F1
330
0
100
AcDbSymbolTable
 70
     0
  0
ENDTAB
  0
TABLE
  2
UCS
  5
14F2
330
0
100
AcDbSymbolTable
 70
     0
  0
ENDTAB
  0
TABLE
  2
APPID
  5
14F4
330
0
100
AcDbSymbolTable
 70
     1
  0
APPID
  5
14FC
330
14F4
100
AcDbSymbolTableRecord
100
AcDbRegAppTableRecord
  2
ACAD
 70
     0
  0
ENDTAB
  0
TABLE
  2
DIMSTYLE
  5
14F5
330
0
100
AcDbSymbolTable
 70
     2
100
AcDbDimStyleTable
 71
     0
  0
DIMSTYLE
105
1516
330
14F5
100
AcDbSymbolTableRecord
100
AcDbDimStyleTableRecord
  2
STANDARD
 70
     0
279
     2
340
14FB
  0
DIMSTYLE
105
2581
330
14F5
100
AcDbSymbolTableRecord
100
AcDbDimStyleTableRecord
  2
STANDARDPLUS06
 70
     0
 41
4.0
 42
1.0
 43
0.0
 44
0.5
 48
0.6
 71
     1
 73
     0
 74
     0
 77
     1
140
3.5
146
0.5
147
2.0
176
     6
177
     6
178
     1
271
     0
272
     1
279
     2
340
14FB
  0
ENDTAB
  0
TABLE
  2
BLOCK_RECORD
  5
14EC
330
0
100
AcDbSymbolTable
 70
     5
  0
BLOCK_RECORD
  5
1503
330
14EC
100
AcDbSymbolTableRecord
100
AcDbBlockTableRecord
  2
*MODEL_SPACE
340
2551
  0
BLOCK_RECORD
  5
1500
330
14EC
100
AcDbSymbolTableRecord
100
AcDbBlockTableRecord
  2
*PAPER_SPACE
340
2552
  0
BLOCK_RECORD
  5
2556
330
14EC
100
AcDbSymbolTableRecord
100
AcDbBlockTableRecord
  2
GUßTEILE
340
0
102
{BLKREFS
331
2578
102
}
  0
BLOCK_RECORD
  5
2577
330
14EC
100
AcDbSymbolTableRecord
100
AcDbBlockTableRecord
  2
A$C9213
340
0
102
{BLKREFS
331
25B7
102
}
  0
BLOCK_RECORD
  5
257B
330
14EC
100
AcDbSymbolTableRecord
100
AcDbBlockTableRecord
  2
EN-GJS-500
340
0
  0
BLOCK_RECORD
  5
25B6
330
14EC
100
AcDbSymbolTableRecord
100
AcDbBlockTableRecord
  2
A$C6E0B1931
340
0
  0
BLOCK_RECORD
  5
25C3
330
14EC
100
AcDbSymbolTableRecord
100
AcDbBlockTableRecord
  2
D
340
0
  0
ENDTAB
  0
ENDSEC
  0
SECTION
  2
BLOCKS
  0
BLOCK
  5
1521
330
1503
100
AcDbEntity
  8
0
 62
     6
100
AcDbBlockBegin
  2
*MODEL_SPACE
 70
     0
 10
0.0
 20
0.0
 30
0.0
  3
*MODEL_SPACE
  1

  0
ENDBLK
  5
1522
330
1503
100
AcDbEntity
  8
0
 62
     6
100
AcDbBlockEnd
  0
BLOCK
  5
151F
330
1500
100
AcDbEntity
 67
     1
  8
0
 62
     6
100
AcDbBlockBegin
  2
*PAPER_SPACE
 70
     0
 10
0.0
 20
0.0
 30
0.0
  3
*PAPER_SPACE
  1

  0
ENDBLK
  5
1520
330
1500
100
AcDbEntity
 67
     1
  8
0
 62
     6
100
AcDbBlockEnd
  0
BLOCK
  5
2575
330
2556
100
AcDbEntity
  8
0
100
AcDbBlockBegin
  2
GUßTEILE
 70
     0
 10
0.0
 20
0.0
 30
0.0
  3
GUßTEILE
  1

  0
TEXT
  5
2557
330
2556
100
AcDbEntity
  8
10-TEXT25
 48
10.0
100
AcDbText
 10
42.56784117364373
 20
26.37607179550231
 30
0.0
 40
2.5
  1
and/or acc. to drawing data
 41
0.8
 11
42.56784117364373
 21
25.54273846216898
 31
0.0
100
AcDbText
 73
     1
  0
TEXT
  5
2558
330
2556
100
AcDbEntity
  8
10-TEXT25
 48
10.0
100
AcDbText
 10
42.56784117364373
 20
17.68900308149911
 30
0.0
 40
2.5
  1
and/or acc. to drawing data
 41
0.8
 11
42.56784117364373
 21
16.85566974816578
 31
0.0
100
AcDbText
 73
     1
  0
TEXT
  5
2559
330
2556
100
AcDbEntity
  8
10-TEXT25
 48
10.0
100
AcDbText
 10
42.56783973831306
 20
21.97424142305046
 30
0.0
 40
2.5
  1
acc. to DIN 1684-1, GTA 16/5
 41
0.8
 11
42.56783973831306
 21
21.14090808971713
 31
0.0
100
AcDbText
 73
     1
  0
TEXT
  5
255A
330
2556
100
AcDbEntity
  8
10-TEXT25
 48
10.0
100
AcDbText
 10
-0.6836220122920622
 20
21.97424142305046
 30
0.0
 40
2.5
  1
outer shape:
 41
0.8
 11
-0.6836220122920622
 21
21.14090808971713
 31
0.0
100
AcDbText
 73
     1
  0
TEXT
  5
255B
330
2556
100
AcDbEntity
  8
10-TEXT25
 48
10.0
100
AcDbText
 10
42.43746896965819
 20
55.21464684249679
 30
0.0
 40
2.5
  1
bzw. nach Zeichnungsangabe
 41
0.8
 11
42.43746896965819
 21
54.38131350916345
 31
0.0
100
AcDbText
 73
     1
  0
TEXT
  5
255C
330
2556
100
AcDbEntity
  8
10-TEXT25
 48
10.0
100
AcDbText
 10
42.59252447173355
 20
59.12804179959916
 30
0.0
 40
2.5
  1
nach DIN 1684-1, GTA 16/5
 41
0.8
 11
42.59252447173355
 21
58.29470846626583
 31
0.0
100
AcDbText
 73
     1
  0
TEXT
  5
255D
330
2556
100
AcDbEntity
  8
10-TEXT25
 48
10.0
100
AcDbText
 10
-0.1914437155950281
 20
58.92309030910953
 30
0.0
 40
2.5
  1
Außenform:
 41
0.8
 11
-0.1914437155950281
 21
58.08975697577619
 31
0.0
100
AcDbText
 73
     1
  0
TEXT
  5
255E
330
2556
100
AcDbEntity
  8
10-TEXT25
 48
10.0
100
AcDbText
 10
-0.7463180814153248
 20
71.58224636539158
 30
0.0
 40
2.5
  1
Fertigungstoleranzen:
 41
0.8
 11
-0.7463180814153248
 21
70.74891303205825
 31
0.0
100
AcDbText
 73
     1
  0
TEXT
  5
255F
330
2556
100
AcDbEntity
  8
10-TEXT25
 48
10.0
100
AcDbText
 10
42.45012676127283
 20
50.64067038983332
 30
0.0
 40
2.5
  1
R 2,0
 41
0.8
 11
42.45012676127283
 21
49.80733705649999
 31
0.0
100
AcDbText
 73
     1
  0
TEXT
  5
2560
330
2556
100
AcDbEntity
  8
10-TEXT25
 48
10.0
100
AcDbText
 10
42.45012819660348
 20
38.2100881525903
 30
0.0
 40
2.5
  1
roh
 41
0.8
 11
42.45012819660348
 21
37.37675481925697
 31
0.0
100
AcDbText
 73
     1
  0
TEXT
  5
2561
330
2556
100
AcDbEntity
  8
10-TEXT25
 48
10.0
100
AcDbText
 10
42.59252447173355
 20
42.4657025000097
 30
0.0
 40
2.5
  1
entgratet
 41
0.8
 11
42.59252447173355
 21
41.63236916667637
 31
0.0
100
AcDbText
 73
     1
  0
TEXT
  5
2562
330
2556
100
AcDbEntity
  8
10-TEXT25
 48
10.0
100
AcDbText
 10
42.59252447173355
 20
46.64283562588004
 30
0.0
 40
2.5
  1
entgratet
 41
0.8
 11
42.59252447173355
 21
45.8095022925467
 31
0.0
100
AcDbText
 73
     1
  0
TEXT
  5
2563
330
2556
100
AcDbEntity
  8
10-TEXT25
 48
10.0
100
AcDbText
 10
-0.5571365569643377
 20
38.2100881525903
 30
0.0
 40
2.5
  1
Oberfläche:
 41
0.8
 11
-0.5571365569643377
 21
37.37675481925697
 31
0.0
100
AcDbText
 73
     1
  0
TEXT
  5
2564
330
2556
100
AcDbEntity
  8
10-TEXT25
 48
10.0
100
AcDbText
 10
-0.1914437155950281
 20
46.43788413539041
 30
0.0
 40
2.5
  1
Außenkanten:
 41
0.8
 11
-0.1914437155950281
 21
45.60455080205708
 31
0.0
100
AcDbText
 73
     1
  0
TEXT
  5
2565
330
2556
100
AcDbEntity
  8
10-TEXT25
 48
10.0
100
AcDbText
 10
-0.6836220122920622
 20
34.16416057505878
 30
0.0
 40
2.5
  1
manufacturing tolerances:
 41
0.8
 11
-0.6836220122920622
 21
33.33082724172544
 31
0.0
100
AcDbText
 73
     1
  0
TEXT
  5
2566
330
2556
100
AcDbEntity
  8
10-TEXT25
 48
10.0
100
AcDbText
 10
-0.643700843892816
 20
50.43571889934369
 30
0.0
 40
2.5
  1
nicht vermaßte Radien:
 41
0.8
 11
-0.643700843892816
 21
49.60238556601035
 31
0.0
100
AcDbText
 73
     1
  0
TEXT
  5
2567
330
2556
100
AcDbEntity
  8
10-TEXT25
 48
10.0
100
AcDbText
 10
-0.5571365569643377
 20
42.4657025000097
 30
0.0
 40
2.5
  1
Gewindeanfang/-ende:
 41
0.8
 11
-0.5571365569643377
 21
41.63236916667637
 31
0.0
100
AcDbText
 73
     1
  0
TEXT
  5
2568
330
2556
100
AcDbEntity
  8
10-TEXT25
 48
10.0
100
AcDbText
 10
42.58050040058901
 20
9.28516132106076
 30
0.0
 40
2.5
  1
deburred
 41
0.8
 11
42.58050040058901
 21
8.451827987727426
 31
0.0
100
AcDbText
 73
     1
  0
TEXT
  5
2569
330
2556
100
AcDbEntity
  8
10-TEXT25
 48
10.0
100
AcDbText
 10
42.43810269012806
 20
0.9387353567513134
 30
0.0
 40
2.5
  1
rough
 41
0.8
 11
42.43810269012806
 21
0.1054020234179802
 31
0.0
100
AcDbText
 73
     1
  0
TEXT
  5
256A
330
2556
100
AcDbEntity
  8
10-TEXT25
 48
10.0
100
AcDbText
 10
42.58049896525835
 20
4.995838062850471
 30
0.0
 40
2.5
  1
deburred
 41
0.8
 11
42.58049896525835
 21
4.162504729517138
 31
0.0
100
AcDbText
 73
     1
  0
TEXT
  5
256B
330
2556
100
AcDbEntity
  8
10-TEXT25
 48
10.0
100
AcDbText
 10
-0.6372324226263118
 20
9.080209830571126
 30
0.0
 40
2.5
  1
outer edges:
 41
0.8
 11
-0.6372324226263118
 21
8.246876497237792
 31
0.0
100
AcDbText
 73
     1
  0
TEXT
  5
256C
330
2556
100
AcDbEntity
  8
10-TEXT25
 48
10.0
100
AcDbText
 10
-0.6134150767143183
 20
0.9387353567513134
 30
0.0
 40
2.5
  1
surface:
 41
0.8
 11
-0.6134150767143183
 21
0.1054020234179802
 31
0.0
100
AcDbText
 73
     1
  0
TEXT
  5
256D
330
2556
100
AcDbEntity
  8
10-TEXT25
 48
10.0
100
AcDbText
 10
-0.4814069240906064
 20
4.995838062850471
 30
0.0
 40
2.5
  1
thread:
 41
0.8
 11
-0.4814069240906065
 21
4.162504729517138
 31
0.0
100
AcDbText
 73
     1
  0
TEXT
  5
256E
330
2556
100
AcDbEntity
  8
10-TEXT25
 48
10.0
100
AcDbText
 10
-0.725237857709999
 20
12.80233192094819
 30
0.0
 40
2.5
  1
not dimensioned radii:
 41
0.8
 11
-0.725237857709999
 21
11.96899858761486
 31
0.0
100
AcDbText
 73
     1
  0
TEXT
  5
256F
330
2556
100
AcDbEntity
  8
10-TEXT25
 48
10.0
100
AcDbText
 10
42.43810269012828
 20
13.00728341143783
 30
0.0
 40
2.5
  1
R 2,0
 41
0.8
 11
42.43810269012828
 21
12.17395007810449
 31
0.0
100
AcDbText
 73
     1
  0
TEXT
  5
2570
330
2556
100
AcDbEntity
  8
10-TEXT25
 48
10.0
100
AcDbText
 10
42.56783973831306
 20
34.16416057505878
 30
0.0
 40
2.5
  1
acc. to DIN ISO 2768-1 class c
 41
0.8
 11
42.56783973831306
 21
33.33082724172544
 31
0.0
100
AcDbText
 73
     1
  0
TEXT
  5
2571
330
2556
100
AcDbEntity
  8
10-TEXT25
 48
10.0
100
AcDbText
 10
55.70197996937849
 20
30.24819547066137
 30
0.0
 40
2.5
  1
DIN ISO 2768-2 class L
 41
0.8
 11
55.70197996937849
 21
29.41486213732804
 31
0.0
100
AcDbText
 73
     1
  0
TEXT
  5
2572
330
2556
100
AcDbEntity
  8
10-TEXT25
 48
10.0
100
AcDbText
 10
51.52041487277085
 20
67.51361171535619
 30
0.0
 40
2.5
  1
DIN ISO 2768-2 Klasse L
 41
0.8
 11
51.52041487277085
 21
66.68027838202286
 31
0.0
100
AcDbText
 73
     1
  0
TEXT
  5
2573
330
2556
100
AcDbEntity
  8
10-TEXT25
 48
10.0
100
AcDbText
 10
42.43746896965819
 20
71.58224636539158
 30
0.0
 40
2.5
  1
nach DIN ISO 2768-1 Klasse c
 41
0.8
 11
42.43746896965819
 21
70.74891303205825
 31
0.0
100
AcDbText
 73
     1
  0
TEXT
  5
2574
330
2556
100
AcDbEntity
  8
10-TEXT25
 48
10.0
100
AcDbText
 10
42.43746896965819
 20
63.68979583438806
 30
0.0
 40
2.5
  1
bzw. nach Zeichnungsangabe
 41
0.8
 11
42.43746896965819
 21
62.85646250105472
 31
0.0
100
AcDbText
 73
     1
  0
ENDBLK
  5
2576
330
2556
100
AcDbEntity
  8
0
100
AcDbBlockEnd
  0
BLOCK
  5
2579
330
2577
100
AcDbEntity
  8
0
100
AcDbBlockBegin
  2
A$C9213
 70
     0
 10
0.0
 20
0.0
 30
0.0
  3
A$C9213
  1

  0
INSERT
  5
2578
330
2577
100
AcDbEntity
  8
10-TEXT25
100
AcDbBlockReference
  2
GUßTEILE
 10
0.8258456573418015
 20
0.1761852478087604
 30
0.0
  0
ENDBLK
  5
257A
330
2577
100
AcDbEntity
  8
0
100
AcDbBlockEnd
  0
BLOCK
  5
257D
330
257B
100
AcDbEntity
  8
0
100
AcDbBlockBegin
  2
EN-GJS-500
 70
     0
 10
0.0
 20
0.0
 30
0.0
  3
EN-GJS-500
  1

  0
TEXT
  5
257C
330
257B
100
AcDbEntity
  8
10-TEXT25
 48
10.0
100
AcDbText
 10
-0.0010436810157585
 20
2.963657820226396
 30
-3.51
 40
3.5
  1
HBW 10/3000 170-230
 41
0.8
 72
     2
 11
52.53228965231755
 21
1.79699115355973
 31
-3.51
100
AcDbText
 73
     1
  0
ENDBLK
  5
257E
330
257B
100
AcDbEntity
  8
0
100
AcDbBlockEnd
  0
BLOCK
  5
25B9
330
25B6
100
AcDbEntity
  8
0
100
AcDbBlockBegin
  2
A$C6E0B1931
 70
     0
 10
0.0
 20
0.0
 30
0.0
  3
A$C6E0B1931
  1

  0
INSERT
  5
25B7
330
25B6
100
AcDbEntity
  8
02-SCHRIFTKOPF
100
AcDbBlockReference
  2
A$C9213
 10
-0.427937729122732
 20
-0.2815871333521045
 30
0.0
  0
TEXT
  5
25B8
330
25B6
100
AcDbEntity
  8
02-SCHRIFTKOPF
 62
     7
 48
10.0
100
AcDbText
 10
103.3752368822974
 20
47.87896595618508
 30
0.0
 40
3.5
  1
SAS
 41
0.8
100
AcDbText
  0
ENDBLK
  5
25BA
330
25B6
100
AcDbEntity
  8
0
100
AcDbBlockEnd
  0
BLOCK
  5
25C8
330
25C3
100
AcDbEntity
  8
0
100
AcDbBlockBegin
  2
D
 70
     0
 10
0.0
 20
0.0
 30
0.0
  3
D
  1

  0
MTEXT
  5
25C4
330
25C3
100
AcDbEntity
  8
09-INDIZEES
  6
ByBlock
 62
     1
 48
10.0
100
AcDbMText
 10
-0.5953097304485482
 20
2.816103703821511
 30
0.0
 40
3.75
 41
0.0
 71
     5
 72
     5
  1
{d}
 73
     1
 44
1.0
  0
LINE
  5
25C5
330
25C3
100
AcDbEntity
  8
09-INDIZEES
 62
     6
 48
10.0
100
AcDbLine
 10
-0.1652139849246623
 20
6.818821809054327
 30
0.0
 11
-3.619638645767622
 21
-0.0949797810575888
 31
0.0
  0
LINE
  5
25C6
330
25C3
100
AcDbEntity
  8
09-INDIZEES
 62
     6
 48
10.0
100
AcDbLine
 10
3.289210675918639
 20
-0.0949797810575888
 30
0.0
 11
-0.1652139849246623
 21
6.818821809054327
 31
0.0
  0
LINE
  5
25C7
330
25C3
100
AcDbEntity
  8
09-INDIZEES
 62
     6
 48
10.0
100
AcDbLine
 10
3.289210675918639
 20
-0.0949797810575888
 30
0.0
 11
-3.619638645767622
 21
-0.0949797810575888
 31
0.0
  0
ENDBLK
  5
25C9
330
25C3
100
AcDbEntity
  8
0
100
AcDbBlockEnd
  0
ENDSEC
  0
SECTION
  2
ENTITIES
  0
LINE
  5
232F
330
1503
100
AcDbEntity
  8
03-KONTUR
 48
10.0
100
AcDbLine
 10
685.5959061711405
 20
24.16565827332431
 30
0.0
 11
685.5959061711411
 21
49.16565827332431
 31
0.0
1001
ACAD
1000
ASC_BOUNDS
1002
{
1070
    19
1002
}
  0
LINE
  5
2330
330
1503
100
AcDbEntity
  8
03-KONTUR
 48
10.0
100
AcDbLine
 10
693.5959061711405
 20
24.16565827332431
 30
0.0
 11
693.5959061711404
 21
55.1156582733243
 31
0.0
1001
ACAD
1000
ASC_BOUNDS
1002
{
1070
    19
1002
}
  0
LINE
  5
2331
330
1503
100
AcDbEntity
  8
03-KONTUR
 48
10.0
100
AcDbLine
 10
660.5959061711404
 20
33.22767274360592
 30
0.0
 11
660.5959061711404
 21
65.1036438030427
 31
0.0
1001
ACAD
1000
ASC_BOUNDS
1002
{
1070
    19
1002
}
  0
LINE
  5
2332
330
1503
100
AcDbEntity
  8
03-KONTUR
 48
10.0
100
AcDbLine
 10
675.5959061711404
 20
31.22767274360592
 30
0.0
 11
675.5959061711404
 21
49.16565827332431
 31
0.0
1001
ACAD
1000
ASC_BOUNDS
1002
{
1070
    19
1002
}
  0
LINE
  5
2337
330
1503
100
AcDbEntity
  8
03-KONTUR
 48
10.0
100
AcDbLine
 10
693.5959061711405
 20
24.16565827332431
 30
0.0
 11
685.5959061711405
 21
24.16565827332431
 31
0.0
  0
LINE
  5
2338
330
1503
100
AcDbEntity
  8
03-KONTUR
 48
10.0
100
AcDbLine
 10
683.5959061711406
 20
31.22767274360578
 30
0.0
 11
662.5959061711404
 21
31.22767274360592
 31
0.0
  0
ARC
  5
233A
330
1503
100
AcDbEntity
  8
03-KONTUR
 48
10.0
100
AcDbCircle
 10
662.5959061711404
 20
33.22767274360592
 30
0.0
 40
2.0
100
AcDbArc
 50
179.9999999999998
 51
270.0
  0
ARC
  5
233B
330
1503
100
AcDbEntity
  8
03-KONTUR
 48
10.0
100
AcDbCircle
 10
683.5959061711406
 20
29.22767274360578
 30
0.0
 40
2.0
100
AcDbArc
 50
0.0
 51
89.99999999999964
1001
ACAD
1000
ASC_BOUNDS
1002
{
1070
    19
1002
}
  0
LINE
  5
233D
330
1503
100
AcDbEntity
  8
03-KONTUR
 48
10.0
100
AcDbLine
 10
675.5959061711404
 20
40.91085312607686
 30
0.0
 11
662.5959061711404
 21
40.91085312607697
 31
0.0
  0
ARC
  5
233E
330
1503
100
AcDbEntity
  8
03-KONTUR
 48
10.0
100
AcDbCircle
 10
662.5959061711404
 20
38.91085312607697
 30
0.0
 40
2.0
100
AcDbArc
 50
89.99999999999948
 51
179.9999999999998
1001
ACAD
1000
ASC_BOUNDS
1002
{
1070
    19
1002
}
  0
ARC
  5
233F
330
1503
100
AcDbEntity
  8
03-KONTUR
 48
10.0
100
AcDbCircle
 10
662.5959061711404
 20
42.91085312607697
 30
0.0
 40
2.0
100
AcDbArc
 50
179.9999999999998
 51
269.9999999999994
1001
ACAD
1000
ASC_BOUNDS
1002
{
1070
    19
1002
}
  0
ARC
  5
2345
330
1503
100
AcDbEntity
  8
03-KONTUR
 48
10.0
100
AcDbCircle
 10
683.5959061711405
 20
69.1036438030427
 30
0.0
 40
2.0
100
AcDbArc
 50
270.0
 51
0.0
1001
ACAD
1000
ASC_BOUNDS
1002
{
1070
    19
1005
0
1005
2538
1002
}
  0
LINE
  5
2347
330
1503
100
AcDbEntity
  8
03-KONTUR
 48
10.0
100
AcDbLine
 10
693.5959061711405
 20
55.1156582733243
 30
0.0
 11
693.5959061711404
 21
74.16565827332431
 31
0.0
1001
ACAD
1000
ASC_BOUNDS
1002
{
1070
    19
1005
2538
1002
}
  0
LINE
  5
2372
330
1503
100
AcDbEntity
  8
03-KONTUR
 48
10.0
100
AcDbLine
 10
683.5959061711405
 20
67.1036438030427
 30
0.0
 11
662.5959061711404
 21
67.1036438030427
 31
0.0
1001
ACAD
1000
ASC_BOUNDS
1002
{
1070
    19
1005
2538
1002
}
  0
ARC
  5
2377
330
1503
100
AcDbEntity
  8
03-KONTUR
 48
10.0
100
AcDbCircle
 10
662.5959061711404
 20
65.1036438030427
 30
0.0
 40
2.0
100
AcDbArc
 50
90.0
 51
180.0
1001
ACAD
1000
ASC_BOUNDS
1002
{
1070
    19
1005
2538
1002
}
  0
LINE
  5
2384
330
1503
100
AcDbEntity
  8
03-KONTUR
 48
10.0
100
AcDbLine
 10
693.5959061711404
 20
74.16565827332431
 30
0.0
 11
685.5959061711404
 21
74.16565827332431
 31
0.0
1001
ACAD
1000
ASC_BOUNDS
1002
{
1070
    19
1005
2538
1002
}
  0
LINE
  5
2385
330
1503
100
AcDbEntity
  8
03-KONTUR
 48
10.0
100
AcDbLine
 10
685.5959061711405
 20
69.1036438030427
 30
0.0
 11
685.5959061711404
 21
74.16565827332431
 31
0.0
1001
ACAD
1000
ASC_BOUNDS
1002
{
1070
    19
1005
2538
1002
}
  0
LINE
  5
25FD
330
1503
100
AcDbEntity
  8
03-KONTUR
 48
10.0
100
AcDbLine
 10
675.5959061711404
 20
67.1036438030427
 30
0.0
 11
675.5959061711404
 21
49.16565827332431
 31
0.0
1001
ACAD
1000
ASC_BOUNDS
1002
{
1070
    19
1002
}
  0
LINE
  5
25FE
330
1503
100
AcDbEntity
  8
03-KONTUR
 48
10.0
100
AcDbLine
 10
685.5959061711405
 20
74.16565827332431
 30
0.0
 11
685.5959061711411
 21
49.16565827332431
 31
0.0
1001
ACAD
1000
ASC_BOUNDS
1002
{
1070
    19
1002
}
  0
LINE
  5
2600
330
1503
100
AcDbEntity
  8
03-KONTUR
 48
10.0
100
AcDbLine
 10
675.5959061711404
 20
57.42046342057176
 30
0.0
 11
662.5959061711404
 21
57.42046342057165
 31
0.0
  0
ARC
  5
2601
330
1503
100
AcDbEntity
  8
03-KONTUR
 48
10.0
100
AcDbCircle
 10
662.5959061711404
 20
59.42046342057165
 30
0.0
 40
2.0
100
AcDbArc
 50
180.0000000000001
 51
270.0000000000005
1001
ACAD
1000
ASC_BOUNDS
1002
{
1070
    19
1002
}
  0
ARC
  5
2602
330
1503
100
AcDbEntity
  8
03-KONTUR
 48
10.0
100
AcDbCircle
 10
662.5959061711404
 20
55.42046342057165
 30
0.0
 40
2.0
100
AcDbArc
 50
90.00000000000053
 51
180.0000000000001
1001
ACAD
1000
ASC_BOUNDS
1002
{
1070
    19
1002
}
  0
ARC
  5
2625
330
1503
100
AcDbEntity
  8
03-KONTUR
100
AcDbCircle
 10
649.1319346076157
 20
49.16565827332432
 30
0.0
 40
11.4306257181829
100
AcDbArc
 50
0.0
 51
29.03238684290631
  0
ARC
  5
2626
330
1503
100
AcDbEntity
  8
03-KONTUR
100
AcDbCircle
 10
659.0265318893233
 20
49.16565827332432
 30
0.0
 40
11.4306257181829
100
AcDbArc
 50
150.9676131570937
 51
180.0
  0
LINE
  5
2627
330
1503
100
AcDbEntity
  8
03-KONTUR
100
AcDbLine
 10
647.5959061711404
 20
56.73909714073171
 30
0.0
 11
647.5959061711404
 21
39.47690817700175
 31
0.0
  0
ARC
  5
2629
330
1503
100
AcDbEntity
  8
03-KONTUR
100
AcDbCircle
 10
650.7981137206224
 20
40.90716693737213
 30
0.0
 40
3.235553394823702
100
AcDbArc
 50
123.0779388735156
 51
236.9220611264843
  0
ARC
  5
262A
330
1503
100
AcDbEntity
  8
03-KONTUR
100
AcDbCircle
 10
657.3603527763167
 20
40.90716693737213
 30
0.0
 40
3.235553394823702
100
AcDbArc
 50
303.0779388735158
 51
56.92206112648437
  0
LINE
  5
262B
330
1503
100
AcDbEntity
  8
03-KONTUR
100
AcDbLine
 10
648.8768111894209
 20
38.19600315872134
 30
0.0
 11
647.5959061711404
 21
39.47690817700175
 31
0.0
  0
LINE
  5
262C
330
1503
100
AcDbEntity
  8
03-KONTUR
100
AcDbLine
 10
659.2816553075182
 20
38.19600315872133
 30
0.0
 11
660.5959061711403
 21
39.51025402234355
 31
0.0
  0
LINE
  5
262D
330
1503
100
AcDbEntity
  8
03-KONTUR
100
AcDbLine
 10
659.2816553075182
 20
38.19600315872133
 30
0.0
 11
648.8768111894209
 21
38.19600315872134
 31
0.0
  0
ARC
  5
262E
330
1503
100
AcDbEntity
  8
03-KONTUR
100
AcDbCircle
 10
659.0265318893233
 20
49.1656582733243
 30
0.0
 40
11.4306257181829
100
AcDbArc
 50
180.0
 51
209.0323868429063
  0
ARC
  5
262F
330
1503
100
AcDbEntity
  8
03-KONTUR
100
AcDbCircle
 10
649.1319346076157
 20
49.1656582733243
 30
0.0
 40
11.4306257181829
100
AcDbArc
 50
330.9676131570936
 51
0.0
  0
LINE
  5
2630
330
1503
100
AcDbEntity
  8
03-KONTUR
100
AcDbLine
 10
659.1262510565367
 20
43.61833071602297
 30
0.0
 11
649.0322154404061
 21
43.61833071602297
 31
0.0
  0
ARC
  5
2631
330
1503
100
AcDbEntity
  8
03-KONTUR
100
AcDbCircle
 10
657.3603527763167
 20
57.42414960927648
 30
0.0
 40
3.235553394823702
100
AcDbArc
 50
303.0779388735156
 51
56.92206112648437
  0
ARC
  5
2632
330
1503
100
AcDbEntity
  8
03-KONTUR
100
AcDbCircle
 10
650.7981137206224
 20
57.42414960927648
 30
0.0
 40
3.235553394823702
100
AcDbArc
 50
123.0779388735156
 51
236.9220611264843
  0
LINE
  5
2633
330
1503
100
AcDbEntity
  8
03-KONTUR
100
AcDbLine
 10
647.5959061711404
 20
58.82106252430506
 30
0.0
 11
647.5959061711404
 21
56.73909714073171
 31
0.0
1001
ACAD
1000
ASC_BOUNDS
1002
{
1070
    19
1005
0
1002
}
  0
LINE
  5
2634
330
1503
100
AcDbEntity
  8
03-KONTUR
100
AcDbLine
 10
660.5959061711404
 20
58.82106252430506
 30
0.0
 11
660.5959061711403
 21
39.51025402234355
 31
0.0
1001
ACAD
1000
ASC_BOUNDS
1002
{
1070
    19
1005
0
1002
}
  0
LINE
  5
2635
330
1503
100
AcDbEntity
  8
03-KONTUR
100
AcDbLine
 10
659.1262510565367
 20
54.71298583062566
 30
0.0
 11
649.0322154404061
 21
54.71298583062566
 31
0.0
  0
LINE
  5
2636
330
1503
100
AcDbEntity
  8
03-KONTUR
100
AcDbLine
 10
659.2816553075182
 20
60.13531338792729
 30
0.0
 11
648.9101570347624
 21
60.13531338792727
 31
0.0
1001
ACAD
1000
ASC_BOUNDS
1002
{
1070
    19
1005
0
1002
}
  0
LINE
  5
2637
330
1503
100
AcDbEntity
  8
03-KONTUR
100
AcDbLine
 10
648.9101570347624
 20
60.13531338792727
 30
0.0
 11
647.5959061711404
 21
58.82106252430506
 31
0.0
1001
ACAD
1000
ASC_BOUNDS
1002
{
1070
    19
1005
0
1002
}
  0
LINE
  5
2638
330
1503
100
AcDbEntity
  8
03-KONTUR
100
AcDbLine
 10
659.2816553075182
 20
60.13531338792729
 30
0.0
 11
660.5959061711404
 21
58.82106252430506
 31
0.0
1001
ACAD
1000
ASC_BOUNDS
1002
{
1070
    19
1005
0
1002
}
  0
ENDSEC
  0
SECTION
  2
OBJECTS
  0
DICTIONARY
  5
14F7
330
0
100
AcDbDictionary
281
     1
  3
ACAD_GROUP
350
14F8
  3
ACAD_LAYOUT
350
254F
  3
ACAD_MLINESTYLE
350
14F9
  3
ACAD_PLOTSETTINGS
350
2550
  3
ACAD_PLOTSTYLENAME
350
254D
  0
DICTIONARY
  5
14F8
102
{ACAD_REACTORS
330
14F7
102
}
330
14F7
100
AcDbDictionary
281
     1
  0
DICTIONARY
  5
254F
102
{ACAD_REACTORS
330
14F7
102
}
330
14F7
100
AcDbDictionary
281
     1
  3
Layout1
350
2552
  3
Model
350
2551
  0
DICTIONARY
  5
14F9
102
{ACAD_REACTORS
330
14F7
102
}
330
14F7
100
AcDbDictionary
281
     1
  3
STANDARD
350
1506
  0
DICTIONARY
  5
2550
102
{ACAD_REACTORS
330
14F7
102
}
330
14F7
100
AcDbDictionary
281
     1
  0
ACDBDICTIONARYWDFLT
  5
254D
102
{ACAD_REACTORS
330
14F7
102
}
330
14F7
100
AcDbDictionary
281
     1
  3
Normal
350
254E
100
AcDbDictionaryWithDefault
340
254E
  0
LAYOUT
  5
2552
102
{ACAD_REACTORS
330
254F
102
}
330
254F
100
AcDbPlotSettings
  1

  2
Kyocera Mita FS-1000+
  4

  6

 40
0.0
 41
0.0
 42
0.0
 43
0.0
 44
0.0
 45
0.0
 46
0.0
 47
0.0
 48
0.0
 49
0.0
140
0.0
141
0.0
142
1.0
143
1.0
 70
   688
 72
     0
 73
     0
 74
     5
  7

 75
    16
147
1.0
148
0.0
149
0.0
100
AcDbLayout
  1
Layout1
 70
     1
 71
     1
 10
0.0
 20
0.0
 11
12.0
 21
9.0
 12
0.0
 22
0.0
 32
0.0
 14
1.000000000000000E+20
 24
1.000000000000000E+20
 34
1.000000000000000E+20
 15
-1.000000000000000E+20
 25
-1.000000000000000E+20
 35
-1.000000000000000E+20
146
0.0
 13
0.0
 23
0.0
 33
0.0
 16
1.0
 26
0.0
 36
0.0
 17
0.0
 27
1.0
 37
0.0
 76
     0
330
1500
  0
LAYOUT
  5
2551
102
{ACAD_REACTORS
330
254F
102
}
330
254F
100
AcDbPlotSettings
  1

  2
Kyocera Mita FS-1800
  4
A4
  6

 40
6.805083274841308
 41
5.027085304260253
 42
6.805084228515625
 43
5.027069091796875
 44
209.9733276367187
 45
296.9259948730469
 46
0.0
 47
8.96
 48
543.2162585118873
 49
-136.9929676107041
140
920.5562585118872
141
138.507032389296
142
1.0
143
1.403012661911184
 70
 11956
 72
     1
 73
     1
 74
     4
  7

 75
     0
147
0.7127519424078466
148
-543.2162585118873
149
136.9929676107041
100
AcDbLayout
  1
Model
 70
     1
 71
     0
 10
0.0
 20
0.0
 11
12.0
 21
9.0
 12
0.0
 22
0.0
 32
0.0
 14
0.0
 24
0.0
 34
0.0
 15
0.0
 25
0.0
 35
0.0
146
0.0
 13
0.0
 23
0.0
 33
0.0
 16
1.0
 26
0.0
 36
0.0
 17
0.0
 27
1.0
 37
0.0
 76
     0
330
1503
  0
MLINESTYLE
  5
1506
102
{ACAD_REACTORS
330
14F9
102
}
330
14F9
100
AcDbMlineStyle
  2
STANDARD
 70
     0
  3

 62
     0
 51
90.0
 52
90.0
 71
     2
 49
0.5
 62
   256
  6
BYLAYER
 49
-0.5
 62
   256
  6
BYLAYER
  0
ACDBPLACEHOLDER
  5
254E
102
{ACAD_REACTORS
330
254D
102
}
330
254D
  0
ENDSEC
  0
EOF
