  0
SECTION
  2
HEADER
  9
$ACADVER
  1
AC1015
  9
$ACADMAINTVER
 70
    10
  9
$DWGCODEPAGE
  3
ANSI_1252
  9
$INSBASE
 10
0.0
 20
0.0
 30
0.0
  9
$EXTMIN
 10
693.7879198727342
 20
-25.56673109036762
 30
0.0
  9
$EXTMAX
 10
843.7879198727342
 20
124.4332689096323
 30
0.0
  9
$LIMMIN
 10
0.0
 20
0.0
  9
$LIMMAX
 10
12.0
 20
9.0
  9
$ORTHOMODE
 70
     1
  9
$REGENMODE
 70
     1
  9
$FILLMODE
 70
     1
  9
$QTEXTMODE
 70
     0
  9
$MIRRTEXT
 70
     1
  9
$LTSCALE
 40
25.0
  9
$ATTMODE
 70
     1
  9
$TEXTSIZE
 40
5.0
  9
$TRACEWID
 40
0.05
  9
$TEXTSTYLE
  7
STANDARD
  9
$CLAYER
  8
03-KONTUR
  9
$CELTYPE
  6
BYLAYER
  9
$CECOLOR
 62
   256
  9
$CELTSCALE
 40
1.0
  9
$DISPSILH
 70
     0
  9
$DIMSCALE
 40
1.0
  9
$DIMASZ
 40
4.0
  9
$DIMEXO
 40
0.0625
  9
$DIMDLI
 40
0.0
  9
$DIMRND
 40
0.0
  9
$DIMDLE
 40
0.0
  9
$DIMEXE
 40
2.0
  9
$DIMTP
 40
1.0
  9
$DIMTM
 40
0.0
  9
$DIMTXT
 40
3.5
  9
$DIMCEN
 40
0.09
  9
$DIMTSZ
 40
0.0
  9
$DIMTOL
 70
     0
  9
$DIMLIM
 70
     0
  9
$DIMTIH
 70
     0
  9
$DIMTOH
 70
     0
  9
$DIMSE1
 70
     0
  9
$DIMSE2
 70
     0
  9
$DIMTAD
 70
     1
  9
$DIMZIN
 70
     0
  9
$DIMBLK
  1

  9
$DIMASO
 70
     1
  9
$DIMSHO
 70
     1
  9
$DIMPOST
  1

  9
$DIMAPOST
  1

  9
$DIMALT
 70
     0
  9
$DIMALTD
 70
     2
  9
$DIMALTF
 40
25.4
  9
$DIMLFAC
 40
1.0
  9
$DIMTOFL
 70
     1
  9
$DIMTVP
 40
0.0
  9
$DIMTIX
 70
     0
  9
$DIMSOXD
 70
     0
  9
$DIMSAH
 70
     0
  9
$DIMBLK1
  1

  9
$DIMBLK2
  1

  9
$DIMSTYLE
  2
STANDARD
  9
$DIMCLRD
 70
     6
  9
$DIMCLRE
 70
     6
  9
$DIMCLRT
 70
     1
  9
$DIMTFAC
 40
0.7
  9
$DIMGAP
 40
2.0
  9
$DIMJUST
 70
     0
  9
$DIMSD1
 70
     0
  9
$DIMSD2
 70
     0
  9
$DIMTOLJ
 70
     0
  9
$DIMTZIN
 70
     0
  9
$DIMALTZ
 70
     0
  9
$DIMALTTZ
 70
     0
  9
$DIMUPT
 70
     1
  9
$DIMDEC
 70
     0
  9
$DIMTDEC
 70
     0
  9
$DIMALTU
 70
     2
  9
$DIMALTTD
 70
     2
  9
$DIMTXSTY
  7
STANDARD
  9
$DIMAUNIT
 70
     0
  9
$DIMADEC
 70
     0
  9
$DIMALTRND
 40
0.0
  9
$DIMAZIN
 70
     0
  9
$DIMDSEP
 70
    46
  9
$DIMATFIT
 70
     1
  9
$DIMFRAC
 70
     0
  9
$DIMLDRBLK
  1

  9
$DIMLUNIT
 70
     2
  9
$DIMLWD
 70
    -2
  9
$DIMLWE
 70
    -2
  9
$DIMTMOVE
 70
     0
  9
$LUNITS
 70
     2
  9
$LUPREC
 70
     4
  9
$SKETCHINC
 40
0.1
  9
$FILLETRAD
 40
3.0
  9
$AUNITS
 70
     0
  9
$AUPREC
 70
     0
  9
$MENU
  1
.
  9
$ELEVATION
 40
0.0
  9
$PELEVATION
 40
0.0
  9
$THICKNESS
 40
0.0
  9
$LIMCHECK
 70
     0
  9
$CHAMFERA
 40
0.0
  9
$CHAMFERB
 40
0.0
  9
$CHAMFERC
 40
0.0
  9
$CHAMFERD
 40
0.0
  9
$SKPOLY
 70
     0
  9
$TDCREATE
 40
2450597.539778125
  9
$TDUCREATE
 40
2450597.498111458
  9
$TDUPDATE
 40
2453013.533197349
  9
$TDUUPDATE
 40
2453013.491530682
  9
$TDINDWG
 40
0.9625109838
  9
$TDUSRTIMER
 40
0.9625109838
  9
$USRTIMER
 70
     1
  9
$ANGBASE
 50
0.0
  9
$ANGDIR
 70
     0
  9
$PDMODE
 70
     0
  9
$PDSIZE
 40
0.0
  9
$PLINEWID
 40
0.0
  9
$SPLFRAME
 70
     0
  9
$SPLINETYPE
 70
     6
  9
$SPLINESEGS
 70
     8
  9
$HANDSEED
  5
38C9
  9
$SURFTAB1
 70
     6
  9
$SURFTAB2
 70
     6
  9
$SURFTYPE
 70
     6
  9
$SURFU
 70
     6
  9
$SURFV
 70
     6
  9
$UCSBASE
  2

  9
$UCSNAME
  2

  9
$UCSORG
 10
0.0
 20
0.0
 30
0.0
  9
$UCSXDIR
 10
1.0
 20
0.0
 30
0.0
  9
$UCSYDIR
 10
0.0
 20
1.0
 30
0.0
  9
$UCSORTHOREF
  2

  9
$UCSORTHOVIEW
 70
     0
  9
$UCSORGTOP
 10
0.0
 20
0.0
 30
0.0
  9
$UCSORGBOTTOM
 10
0.0
 20
0.0
 30
0.0
  9
$UCSORGLEFT
 10
0.0
 20
0.0
 30
0.0
  9
$UCSORGRIGHT
 10
0.0
 20
0.0
 30
0.0
  9
$UCSORGFRONT
 10
0.0
 20
0.0
 30
0.0
  9
$UCSORGBACK
 10
0.0
 20
0.0
 30
0.0
  9
$PUCSBASE
  2

  9
$PUCSNAME
  2

  9
$PUCSORG
 10
0.0
 20
0.0
 30
0.0
  9
$PUCSXDIR
 10
1.0
 20
0.0
 30
0.0
  9
$PUCSYDIR
 10
0.0
 20
1.0
 30
0.0
  9
$PUCSORTHOREF
  2

  9
$PUCSORTHOVIEW
 70
     0
  9
$PUCSORGTOP
 10
0.0
 20
0.0
 30
0.0
  9
$PUCSORGBOTTOM
 10
0.0
 20
0.0
 30
0.0
  9
$PUCSORGLEFT
 10
0.0
 20
0.0
 30
0.0
  9
$PUCSORGRIGHT
 10
0.0
 20
0.0
 30
0.0
  9
$PUCSORGFRONT
 10
0.0
 20
0.0
 30
0.0
  9
$PUCSORGBACK
 10
0.0
 20
0.0
 30
0.0
  9
$USERI1
 70
     0
  9
$USERI2
 70
     0
  9
$USERI3
 70
     0
  9
$USERI4
 70
     0
  9
$USERI5
 70
     0
  9
$USERR1
 40
0.0
  9
$USERR2
 40
0.0
  9
$USERR3
 40
0.0
  9
$USERR4
 40
0.0
  9
$USERR5
 40
0.0
  9
$WORLDVIEW
 70
     1
  9
$SHADEDGE
 70
     3
  9
$SHADEDIF
 70
    70
  9
$TILEMODE
 70
     1
  9
$MAXACTVP
 70
    16
  9
$PINSBASE
 10
0.0
 20
0.0
 30
0.0
  9
$PLIMCHECK
 70
     0
  9
$PEXTMIN
 10
1.000000000000000E+20
 20
1.000000000000000E+20
 30
1.000000000000000E+20
  9
$PEXTMAX
 10
-1.000000000000000E+20
 20
-1.000000000000000E+20
 30
-1.000000000000000E+20
  9
$PLIMMIN
 10
0.0
 20
0.0
  9
$PLIMMAX
 10
12.0
 20
9.0
  9
$UNITMODE
 70
     0
  9
$VISRETAIN
 70
     0
  9
$PLINEGEN
 70
     0
  9
$PSLTSCALE
 70
     1
  9
$TREEDEPTH
 70
  3020
  9
$CMLSTYLE
  2
STANDARD
  9
$CMLJUST
 70
     0
  9
$CMLSCALE
 40
1.0
  9
$PROXYGRAPHICS
 70
     1
  9
$MEASUREMENT
 70
     0
  9
$CELWEIGHT
370
    -1
  9
$ENDCAPS
280
     0
  9
$JOINSTYLE
280
     0
  9
$LWDISPLAY
290
     0
  9
$INSUNITS
 70
     0
  9
$HYPERLINKBASE
  1

  9
$STYLESHEET
  1

  9
$XEDIT
290
     1
  9
$CEPSNTYPE
380
     0
  9
$PSTYLEMODE
290
     1
  9
$FINGERPRINTGUID
  2
{F955C36F-D52D-11D6-B41D-0050BA12178D}
  9
$VERSIONGUID
  2
{349517C0-DD22-4FB5-A6A6-9380B6C46C5A}
  9
$EXTNAMES
290
     1
  9
$PSVPSCALE
 40
0.0
  9
$OLESTARTUP
290
     0
  0
ENDSEC
  0
SECTION
  2
CLASSES
  0
CLASS
  1
OLE2FRAME
  2
AcDbOle2Frame
  3
AutoCAD 2000
 90
    32768
280
     0
281
     1
  0
CLASS
  1
ACDBDICTIONARYWDFLT
  2
AcDbDictionaryWithDefault
  3
AutoCAD 2000
 90
        0
280
     0
281
     0
  0
CLASS
  1
ACDBPLACEHOLDER
  2
AcDbPlaceHolder
  3
AutoCAD 2000
 90
        0
280
     0
281
     0
  0
CLASS
  1
LAYOUT
  2
AcDbLayout
  3
AutoCAD 2000
 90
        0
280
     0
281
     0
  0
CLASS
  1
DICTIONARYVAR
  2
AcDbDictionaryVar
  3
AutoCAD 2000
 90
        0
280
     0
281
     0
  0
ENDSEC
  0
SECTION
  2
TABLES
  0
TABLE
  2
VPORT
  5
14F3
330
0
100
AcDbSymbolTable
 70
     4
  0
VPORT
  5
38C8
330
14F3
100
AcDbSymbolTableRecord
100
AcDbViewportTableRecord
  2
*Active
 70
     0
 10
0.0
 20
0.0
 11
1.0
 21
1.0
 12
768.7625894140501
 22
49.43628819818369
 13
0.0
 23
0.0
 14
1.0
 24
1.0
 15
0.0
 25
0.0
 16
0.0
 26
0.0
 36
1.0
 17
0.0
 27
0.0
 37
0.0
 40
151.7542875242271
 41
1.887814313346227
 42
50.0
 43
0.0
 44
0.0
 50
0.0
 51
0.0
 71
     0
 72
   100
 73
     1
 74
     0
 75
     0
 76
     0
 77
     0
 78
     0
281
     0
 65
     1
110
0.0
120
0.0
130
0.0
111
1.0
121
0.0
131
0.0
112
0.0
122
1.0
132
0.0
 79
     0
146
0.0
  0
ENDTAB
  0
TABLE
  2
LTYPE
  5
14F0
330
0
100
AcDbSymbolTable
 70
     3
  0
LTYPE
  5
14FD
330
14F0
100
AcDbSymbolTableRecord
100
AcDbLinetypeTableRecord
  2
BYBLOCK
 70
     0
  3

 72
    65
 73
     0
 40
0.0
  0
LTYPE
  5
14FE
330
14F0
100
AcDbSymbolTableRecord
100
AcDbLinetypeTableRecord
  2
BYLAYER
 70
     0
  3

 72
    65
 73
     0
 40
0.0
  0
LTYPE
  5
14FF
330
14F0
100
AcDbSymbolTableRecord
100
AcDbLinetypeTableRecord
  2
CONTINUOUS
 70
     0
  3
Solid line
 72
    65
 73
     0
 40
0.0
  0
LTYPE
  5
1512
330
14F0
100
AcDbSymbolTableRecord
100
AcDbLinetypeTableRecord
  2
AUSGEZOGEN
 70
     0
  3
_______________________________
 72
    65
 73
     0
 40
0.0
  0
LTYPE
  5
2181
330
14F0
100
AcDbSymbolTableRecord
100
AcDbLinetypeTableRecord
  2
MITTE
 70
     0
  3
____ _ ____ _ ____ _ ____ _ ____ _ ____ _ ____ 
 72
    65
 73
     4
 40
2.0
 49
1.25
 74
     0
 49
-0.25
 74
     0
 49
0.25
 74
     0
 49
-0.25
 74
     0
  0
ENDTAB
  0
TABLE
  2
LAYER
  5
14ED
330
0
100
AcDbSymbolTable
 70
    13
  0
LAYER
  5
14FA
330
14ED
100
AcDbSymbolTableRecord
100
AcDbLayerTableRecord
  2
0
 70
     0
 62
     1
  6
CONTINUOUS
370
    -3
390
3759
  0
LAYER
  5
1D3B
330
14ED
100
AcDbSymbolTableRecord
100
AcDbLayerTableRecord
  2
03-KONTUR
 70
     0
 62
     7
  6
AUSGEZOGEN
370
    -3
390
3759
  0
LAYER
  5
1E78
330
14ED
100
AcDbSymbolTableRecord
100
AcDbLayerTableRecord
  2
01-RAHMEN
 70
     0
 62
     7
  6
CONTINUOUS
370
    -3
390
3759
  0
LAYER
  5
1E7B
330
14ED
100
AcDbSymbolTableRecord
100
AcDbLayerTableRecord
  2
02-SCHRIFTKOPF
 70
     0
 62
     1
  6
CONTINUOUS
370
    -3
390
3759
  0
LAYER
  5
20D0
330
14ED
100
AcDbSymbolTableRecord
100
AcDbLayerTableRecord
  2
10-TEXT25
 70
     0
 62
     1
  6
CONTINUOUS
370
    -3
390
3759
  0
LAYER
  5
21A4
330
14ED
100
AcDbSymbolTableRecord
100
AcDbLayerTableRecord
  2
05-MITTELLINIE
 70
     0
 62
     6
  6
MITTE
370
    -3
390
3759
  0
LAYER
  5
21A8
330
14ED
100
AcDbSymbolTableRecord
100
AcDbLayerTableRecord
  2
09-BEMAßUNG
 70
     0
 62
     1
  6
CONTINUOUS
370
    -3
390
3759
  0
LAYER
  5
21BB
330
14ED
100
AcDbSymbolTableRecord
100
AcDbLayerTableRecord
  2
06-SCHRAFFUR
 70
     0
 62
     6
  6
CONTINUOUS
370
    -3
390
3759
  0
LAYER
  5
2296
330
14ED
100
AcDbSymbolTableRecord
100
AcDbLayerTableRecord
  2
DEFPOINTS
 70
     0
 62
     1
  6
AUSGEZOGEN
290
     0
370
    -3
390
3759
  0
LAYER
  5
2A8F
330
14ED
100
AcDbSymbolTableRecord
100
AcDbLayerTableRecord
  2
08-GEWINDE
 70
     0
 62
     1
  6
CONTINUOUS
370
    -3
390
3759
  0
LAYER
  5
2A91
330
14ED
100
AcDbSymbolTableRecord
100
AcDbLayerTableRecord
  2
2NNHHGF
 70
     0
 62
     1
  6
AUSGEZOGEN
370
    -3
390
3759
  0
LAYER
  5
2A95
330
14ED
100
AcDbSymbolTableRecord
100
AcDbLayerTableRecord
  2
03-KONTUR1
 70
     0
 62
     5
  6
CONTINUOUS
370
    -3
390
3759
  0
LAYER
  5
3768
330
14ED
100
AcDbSymbolTableRecord
100
AcDbLayerTableRecord
  2
09-INDIZEES
 70
     0
 62
     1
  6
CONTINUOUS
370
    -3
390
3759
  0
ENDTAB
  0
TABLE
  2
STYLE
  5
14EE
330
0
100
AcDbSymbolTable
 70
     1
  0
STYLE
  5
14FB
330
14EE
100
AcDbSymbolTableRecord
100
AcDbTextStyleTableRecord
  2
STANDARD
 70
     0
 40
0.0
 41
0.8
 50
0.0
 71
     0
 42
5.0
  3
C:\Programme\AutoCAD LT\romans.shx
  4

  0
ENDTAB
  0
TABLE
  2
VIEW
  5
14F1
330
0
100
AcDbSymbolTable
 70
     0
  0
ENDTAB
  0
TABLE
  2
UCS
  5
14F2
330
0
100
AcDbSymbolTable
 70
     0
  0
ENDTAB
  0
TABLE
  2
APPID
  5
14F4
330
0
100
AcDbSymbolTable
 70
     1
  0
APPID
  5
14FC
330
14F4
100
AcDbSymbolTableRecord
100
AcDbRegAppTableRecord
  2
ACAD
 70
     0
  0
ENDTAB
  0
TABLE
  2
DIMSTYLE
  5
14F5
330
0
100
AcDbSymbolTable
 70
     2
100
AcDbDimStyleTable
 71
     1
340
1516
  0
DIMSTYLE
105
1516
330
14F5
100
AcDbSymbolTableRecord
100
AcDbDimStyleTableRecord
  2
STANDARD
 70
     0
279
     2
340
14FB
  0
DIMSTYLE
105
3860
330
14F5
100
AcDbSymbolTableRecord
100
AcDbDimStyleTableRecord
  2
STANDARDSTÜ
 70
     0
 40
2.0
 41
4.0
 43
0.0
 44
2.0
 47
2.0
 48
2.0
 71
     1
 73
     0
 74
     0
 77
     1
140
3.5
146
0.7
147
2.0
172
     1
176
     6
177
     6
178
     1
271
     0
272
     0
283
     2
340
14FB
  0
ENDTAB
  0
TABLE
  2
BLOCK_RECORD
  5
14EC
330
0
100
AcDbSymbolTable
 70
     8
  0
BLOCK_RECORD
  5
1503
330
14EC
100
AcDbSymbolTableRecord
100
AcDbBlockTableRecord
  2
*MODEL_SPACE
340
375C
  0
BLOCK_RECORD
  5
1500
330
14EC
100
AcDbSymbolTableRecord
100
AcDbBlockTableRecord
  2
*PAPER_SPACE
340
375D
  0
BLOCK_RECORD
  5
3228
330
14EC
100
AcDbSymbolTableRecord
100
AcDbBlockTableRecord
  2
A$C6274
340
0
  0
BLOCK_RECORD
  5
3741
330
14EC
100
AcDbSymbolTableRecord
100
AcDbBlockTableRecord
  2
A$C8175
340
0
  0
BLOCK_RECORD
  5
3761
330
14EC
100
AcDbSymbolTableRecord
100
AcDbBlockTableRecord
  2
A
340
0
  0
BLOCK_RECORD
  5
376F
330
14EC
100
AcDbSymbolTableRecord
100
AcDbBlockTableRecord
  2
GUßTEILE
340
0
102
{BLKREFS
331
37A1
102
}
  0
BLOCK_RECORD
  5
3790
330
14EC
100
AcDbSymbolTableRecord
100
AcDbBlockTableRecord
  2
EN-GJS-500
340
0
  0
BLOCK_RECORD
  5
3794
330
14EC
100
AcDbSymbolTableRecord
100
AcDbBlockTableRecord
  2
Adresse
340
0
310
28000000200000002000000001000800000000000004000000000000000000000000000000000000000000004000000080000000FF000000002000004020000080200000FF200000004000004040000080400000FF400000006000004060000080600000FF600000008000004080000080800000FF80000000A0000040A000
310
0080A00000FFA0000000C0000040C0000080C00000FFC0000000FF000040FF000080FF0000FFFF0000000020004000200080002000FF002000002020004020200080202000FF202000004020004040200080402000FF402000006020004060200080602000FF602000008020004080200080802000FF80200000A0200040A0
310
200080A02000FFA0200000C0200040C0200080C02000FFC0200000FF200040FF200080FF2000FFFF2000000040004000400080004000FF004000002040004020400080204000FF204000004040004040400080404000FF404000006040004060400080604000FF604000008040004080400080804000FF80400000A0400040
310
A0400080A04000FFA0400000C0400040C0400080C04000FFC0400000FF400040FF400080FF4000FFFF4000000060004000600080006000FF006000002060004020600080206000FF206000004060004040600080406000FF406000006060004060600080606000FF606000008060004080600080806000FF80600000A06000
310
40A0600080A06000FFA0600000C0600040C0600080C06000FFC0600000FF600040FF600080FF6000FFFF6000000080004000800080008000FF008000002080004020800080208000FF208000004080004040800080408000FF408000006080004060800080608000FF608000008080004080800080808000FF80800000A080
310
0040A0800080A08000FFA0800000C0800040C0800080C08000FFC0800000FF800040FF800080FF8000FFFF80000000A0004000A0008000A000FF00A0000020A0004020A0008020A000FF20A0000040A0004040A0008040A000FF40A0000060A0004060A0008060A000FF60A0000080A0004080A0008080A000FF80A00000A0
310
A00040A0A00080A0A000FFA0A00000C0A00040C0A00080C0A000FFC0A00000FFA00040FFA00080FFA000FFFFA0000000C0004000C0008000C000FF00C0000020C0004020C0008020C000FF20C0000040C0004040C0008040C000FF40C0000060C0004060C0008060C000FF60C0000080C0004080C0008080C000FF80C00000
310
A0C00040A0C00080A0C000FFA0C00000C0C00040C0C00080C0C000FFC0C00000FFC00040FFC00080FFC000FFFFC0000000FF004000FF008000FF00FF00FF000020FF004020FF008020FF00FF20FF000040FF004040FF008040FF00FF40FF000060FF004060FF008060FF00FF60FF000080FF004080FF008080FF00FF80FF00
310
00A0FF0040A0FF0080A0FF00FFA0FF0000C0FF0040C0FF0080C0FF00FFC0FF0000FFFF0040FFFF0080FFFF00FFFFFF00FFFFFFFFFFFFFFFFFFFFFFFFFFFFFFFFFFFFFFFFFFFFFFFFFFFFFFFFFFFFFFFFFFFFFFFFFFFFFFFFFFFFFFFFFFFFFFFFFFFFFFFFFFFFFFFFFFFFFFFFFFFFFFFFFFFFFFFFFFFFFFFFFFFFFFFFFFFFFF
310
FFFFFFFFFFFFFFFFFFFFFFFFFFFFFFFFFFFFFFFFFFFFFFFFFFFFFFFFFFFFFFFFFFFFFFFFFFFFFFFFFFFFFFFFFFFFFFFFFFFFFFFFFFFFFFFFFFFFFFFFFFFFFFFFFFFFFFFFFFFFFFFFFFFFFFFFFFFFFFFFFFFFFFFFFFFFFFFFFFFFFFFFFFFFFFFFFFFFFFFFFFFFFFFFFFFFFFFFFFFFFFFFFFFFFFFFFFFFFFFFFFFFFFFFFFFFFF
310
FFFFFFFFFFFFFFFFFFFFFFFFFFFFFFFFFFFFFFFFFFFFFFFFFFFFFFFFFFFFFFFFFFFFFFFFFFFFFFFFFFFFFFFFFFFFFFFFFFFFFFFFFFFFFFFFFFFFFFFFFFFFFFFFFFFFFFFFFFFFFFFFFFFFFFFFFFFFFFFFFFFFFFFFFFFFFFFFFFFFFFFFE3E3E3E3E3E3E3E3E3E3E3E3E3E3E3E3FFFFFFFFFFFFFFFFFFFFFFFFFFFFFFFFE3E3E3
310
E3E3E3E3E3E3E3E3E3E3E3E3E3FFFFFFFFFFFFFFFFE3E3E3E3E3E3FFFFE3E3E3E3E3E3E3E3E3E3E3E3E3E3E3E3E3E3E3E3E3FFFFFFE3FFE3E3E3E3FFFFE3E3E3E3E3E3E3E3E3E3E3E3E3E3E3E3E3E3E3E3E3FFFFFFE3E3E3E3FFFFFFFFFFE3E3E3E3E3E3E3E3FFE3E3FFE3E3E3FFE3E3E3FFFFFFFFE3E3E3FFFFFFFFFFE3E3
310
E3E3E3E3E3E3E3FFE3E3E3E3E3E3E3E3E3E3FFFFFFFFFFFFFFFFFFFFFFFFFFFFFFFFE3E3E3FFFFFFFFFFFFFFFFFFFFFFFFFFFFFFFFFFE3E3E3FFFFFFFFFFFFE3E3E3E3E3E3E3E3FFE3E3FFE3E3E3FFE3FFFFFFFFFFE3E3E3FFFFFFFFFFFFE3E3E3E3E3E3E3E3E3FFE3E3E3E3E3E3E3E3E3FFFFFFFFFFFFFFFFFFFFFFFFFFFF
310
FFFFFFFFFFFFFFFFFFFFFFFFFFFFFFFFFFFFFFFFFFFFFFE3E3E3E3E3E3E3E3E3E3E3E3E3E3E3FFFFFFFFFFFFFFFFFFFFFFFFFFFFFFFFFFE3FFE3E3E3E3FFE3FFFFFFFFFFFFFFE3FFFFFFFFFFFFFFFFFFFFFFFFFFFFFFE3E3E3E3E3E3E3E3E3E3E3E3E3E3E3E3E3E3E3E3E3E3E3E3E3E3E3E3E3E3FFFFE3E3E3E3E3E3E3FFE3
310
E3E3E3E3E3E3E3E3E3E3E3E3E3E3E3E3E3E3E3E3E3FFFFFFFFFFFFFFFFFFFFFFFFFFFFFFFFFFFFFFFFFFFFFFFFFFFFFFFFFFFFFFFFFFFFFFFFFFFFFFFFFFFFFFFFFFFFFFFFFFFFFFFFFFFFFFFFFFFFFFFFFFFFFFFFFFFFFFFFFFFFFFFFFFFFFFFFFFFFFFFFFFFFFFFFFFFFFFFFFFFFFFFFFFFFFFFFFFFFFFFFFFFFFFFFFFFF
310
FFFFFFFFFFFFFFFFFFFFFFFFFFFFFFFFFFFFFFFFFFFFFFFFFFFFFFFFFFFFFFFFFFFFFFFFFFFFFFFFFFFFFFFFFFFFFFFFFFFFFFFFFFFFFFFFFFFFFFFFFFFFFFFFFFFFFFFFFFFFFFFFFFFFFFFFFFFFFFFFFFFFFFFFFFFFFFFFFFFFFFFFFFFFFFFFFFFFFFFFFFFFFFFFFFFFFFFFFFFFFFFFFFFFFFFFFFFFFFFFFFFFFFFFFFFFFF
310
FFFFFFFFFFFFFFFFFFFFFFFFFFFFFFFFFFFFFFFFFFFFFFFFFFFFFFFFFFFFFFFFFFFFFFFFFFFFFFFFFFFFFFFFFFFFFFFFFFFFFFFFFFFFFFFF
  0
BLOCK_RECORD
  5
37A0
330
14EC
100
AcDbSymbolTableRecord
100
AcDbBlockTableRecord
  2
A$C9213
340
0
  0
BLOCK_RECORD
  5
37BF
330
14EC
100
AcDbSymbolTableRecord
100
AcDbBlockTableRecord
  2
A$C12473A88
340
0
  0
ENDTAB
  0
ENDSEC
  0
SECTION
  2
BLOCKS
  0
BLOCK
  5
1521
330
1503
100
AcDbEntity
  8
0
 62
     6
100
AcDbBlockBegin
  2
*MODEL_SPACE
 70
     0
 10
0.0
 20
0.0
 30
0.0
  3
*MODEL_SPACE
  1

  0
ENDBLK
  5
1522
330
1503
100
AcDbEntity
  8
0
 62
     6
100
AcDbBlockEnd
  0
BLOCK
  5
151F
330
1500
100
AcDbEntity
 67
     1
  8
0
 62
     6
100
AcDbBlockBegin
  2
*PAPER_SPACE
 70
     0
 10
0.0
 20
0.0
 30
0.0
  3
*PAPER_SPACE
  1

  0
ENDBLK
  5
1520
330
1500
100
AcDbEntity
 67
     1
  8
0
 62
     6
100
AcDbBlockEnd
  0
BLOCK
  5
3269
330
3228
100
AcDbEntity
  8
0
100
AcDbBlockBegin
  2
A$C6274
 70
     0
 10
0.0
 20
0.0
 30
0.0
  3
A$C6274
  1

  0
TEXT
  5
3229
330
3228
100
AcDbEntity
  8
10-TEXT25
 62
     1
 48
1.5
100
AcDbText
 10
0.4231055877497738
 20
82.52772585099874
 30
-7.02
 40
3.0
  1
Fertigungsangaben/manufacturing instructions
 41
0.8
 11
0.4231055877497738
 21
81.52772585099873
 31
-7.02
100
AcDbText
 73
     1
  0
TEXT
  5
322A
330
3228
100
AcDbEntity
  8
10-TEXT25
 62
     1
 48
1.5
100
AcDbText
 10
0.4097999435929296
 20
77.5460478884506
 30
-7.02
 40
3.0
  1
Fertigungsüberwachung/manufacturing supervision
 41
0.8
 11
0.4097999435929296
 21
76.5460478884506
 31
-7.02
100
AcDbText
 73
     1
  0
TEXT
  5
322B
330
3228
100
AcDbEntity
  8
10-TEXT25
 62
     1
 48
1.5
100
AcDbText
 10
0.724898496281071
 20
72.69747950100233
 30
-7.02
 40
3.0
  1
Abnahmekontrolle/acceptance inspection
 41
0.8
 11
0.724898496281071
 21
71.69747950100234
 31
-7.02
100
AcDbText
 73
     1
  0
TEXT
  5
322C
330
3228
100
AcDbEntity
  8
10-TEXT25
 62
     1
 48
1.5
100
AcDbText
 10
95.79943239778016
 20
77.50894063589303
 30
-7.02
 40
3.0
  1
Ü 98-1
 41
0.8
 11
95.79943239778016
 21
76.50894063589302
 31
-7.02
100
AcDbText
 73
     1
  0
TEXT
  5
322D
330
3228
100
AcDbEntity
  8
10-TEXT25
 62
     1
 48
1.5
100
AcDbText
 10
95.82819754670651
 20
72.59349707231146
 30
-7.02
 40
3.0
  1
K 98-1
 41
0.8
 11
95.82819754670651
 21
71.59349707231147
 31
-7.02
100
AcDbText
 73
     1
  0
TEXT
  5
322E
330
3228
100
AcDbEntity
  8
10-TEXT25
 62
     1
 48
1.5
100
AcDbText
 10
96.16979043801087
 20
82.48670827938539
 30
-7.02
 40
3.0
  1
A 98-1
 41
0.8
 11
96.16979043801087
 21
81.4867082793854
 31
-7.02
100
AcDbText
 73
     1
  0
TEXT
  5
322F
330
3228
100
AcDbEntity
  8
10-TEXT25
 48
10.0
100
AcDbText
 10
0.2513335549609792
 20
44.70989091289133
 30
0.0
 40
2.5
  1
Gewindeanfang/-ende:
 41
0.8
 11
0.2513335549609792
 21
43.876557579558
 31
0.0
100
AcDbText
 73
     1
  0
TEXT
  5
3230
330
3228
100
AcDbEntity
  8
10-TEXT25
 48
10.0
100
AcDbText
 10
43.92444984952169
 20
44.70989091289133
 30
0.0
 40
2.5
  1
entgratet
 41
0.8
 11
43.92444984952169
 21
43.876557579558
 31
0.0
100
AcDbText
 73
     1
  0
TEXT
  5
3231
330
3228
100
AcDbEntity
  8
02-SCHRIFTKOPF
 48
10.0
100
AcDbText
 10
111.8931101706592
 20
44.54004815779413
 30
0.0
 40
2.5
  1
Herstellerzeichen / manufacturer mark
 41
0.75
100
AcDbText
  0
CIRCLE
  5
3232
330
3228
100
AcDbEntity
  8
02-SCHRIFTKOPF
 48
1.5
100
AcDbCircle
 10
107.0662999992221
 20
46.19530145843251
 30
0.0
 40
2.720629648604097
  0
TEXT
  5
3233
330
3228
100
AcDbEntity
  8
02-SCHRIFTKOPF
 48
10.0
100
AcDbText
 10
106.0529386534668
 20
45.01897589464365
 30
0.0
 40
2.5
  1
1
 41
0.8
100
AcDbText
  0
TEXT
  5
3234
330
3228
100
AcDbEntity
  8
10-TEXT25
 48
10.0
100
AcDbText
 10
44.12602019107225
 20
1.28037649989676
 30
0.0
 40
2.5
  1
rough, blosted
 41
0.8
 11
44.12602019107225
 21
0.4470431665634181
 31
0.0
100
AcDbText
 73
     1
  0
TEXT
  5
3235
330
3228
100
AcDbEntity
  8
10-TEXT25
 48
10.0
100
AcDbText
 10
43.89976655143186
 20
24.99830217089753
 30
0.0
 40
2.5
  1
acc. to DIN 1684-1, GTA 16/5
 41
0.8
 11
43.89976655143186
 21
24.1649688375642
 31
0.0
100
AcDbText
 73
     1
  0
TEXT
  5
3236
330
3228
100
AcDbEntity
  8
10-TEXT25
 48
10.0
100
AcDbText
 10
43.89976655143186
 20
28.92119638961968
 30
0.0
 40
2.5
  1
acc. to DIN ISO 1101
 41
0.8
 11
43.89976655143186
 21
28.08786305628635
 31
0.0
100
AcDbText
 73
     1
  0
TEXT
  5
3237
330
3228
100
AcDbEntity
  8
10-TEXT25
 48
10.0
100
AcDbText
 10
43.89976655143186
 20
21.64565547139385
 30
0.0
 40
2.5
  1
and/or acc. to drawing data
 41
0.8
 11
43.89976655143186
 21
20.81232213806052
 31
0.0
100
AcDbText
 73
     1
  0
TEXT
  5
3238
330
3228
100
AcDbEntity
  8
10-TEXT25
 48
10.0
100
AcDbText
 10
43.92444984952169
 20
36.22596144679202
 30
0.0
 40
2.5
  1
roh, gestrahlt
 41
0.8
 11
43.92444984952169
 21
35.39262811345869
 31
0.0
100
AcDbText
 73
     1
  0
TEXT
  5
3239
330
3228
100
AcDbEntity
  8
10-TEXT25
 48
10.0
100
AcDbText
 10
0.1632772479849791
 20
1.28037649989676
 30
0.0
 40
2.5
  1
surface:
 41
0.8
 11
0.1632772479849791
 21
0.4470431665634181
 31
0.0
100
AcDbText
 73
     1
  0
TEXT
  5
323A
330
3228
100
AcDbEntity
  8
10-TEXT25
 48
10.0
100
AcDbText
 10
0.1632772479849791
 20
5.194509604312543
 30
0.0
 40
2.5
  1
casting seam:
 41
0.8
 11
0.1632772479849791
 21
4.3611762709792
 31
0.0
100
AcDbText
 73
     1
  0
TEXT
  5
323B
330
3228
100
AcDbEntity
  8
10-TEXT25
 48
10.0
100
AcDbText
 10
0.2274653371557633
 20
17.26227312727381
 30
0.0
 40
2.5
  1
not dimensioned radii:
 41
0.8
 11
0.2274653371557633
 21
16.42893979394048
 31
0.0
100
AcDbText
 73
     1
  0
TEXT
  5
323C
330
3228
100
AcDbEntity
  8
10-TEXT25
 48
10.0
100
AcDbText
 10
0.2274653371557633
 20
13.54015103689674
 30
0.0
 40
2.5
  1
outer edges:
 41
0.8
 11
0.2274653371557633
 21
12.70681770356341
 31
0.0
100
AcDbText
 73
     1
  0
TEXT
  5
323D
330
3228
100
AcDbEntity
  8
10-TEXT25
 48
10.0
100
AcDbText
 10
0.1632772479849791
 20
9.45577926917609
 30
0.0
 40
2.5
  1
thread:
 41
0.8
 11
0.1632772479849791
 21
8.622445935842762
 31
0.0
100
AcDbText
 73
     1
  0
TEXT
  5
323E
330
3228
100
AcDbEntity
  8
10-TEXT25
 48
10.0
100
AcDbText
 10
44.12602019107225
 20
5.194509604312543
 30
0.0
 40
2.5
  1
clean
 41
0.8
 11
44.12602019107225
 21
4.3611762709792
 31
0.0
100
AcDbText
 73
     1
  0
TEXT
  5
323F
330
3228
100
AcDbEntity
  8
10-TEXT25
 48
10.0
100
AcDbText
 10
44.12602019107225
 20
9.45577926917609
 30
0.0
 40
2.5
  1
deburred
 41
0.8
 11
44.12602019107225
 21
8.622445935842762
 31
0.0
100
AcDbText
 73
     1
  0
TEXT
  5
3240
330
3228
100
AcDbEntity
  8
10-TEXT25
 48
10.0
100
AcDbText
 10
44.12602019107225
 20
17.46722461776345
 30
0.0
 40
2.5
  1
R 2,0
 41
0.8
 11
44.12602019107225
 21
16.63389128443012
 31
0.0
100
AcDbText
 73
     1
  0
TEXT
  5
3241
330
3228
100
AcDbEntity
  8
10-TEXT25
 48
10.0
100
AcDbText
 10
44.12602019107225
 20
13.74510252738637
 30
0.0
 40
2.5
  1
deburred
 41
0.8
 11
44.12602019107225
 21
12.91176919405305
 31
0.0
100
AcDbText
 73
     1
  0
TEXT
  5
3242
330
3228
100
AcDbEntity
  8
10-TEXT25
 48
10.0
100
AcDbText
 10
0.4263528518317799
 20
28.92119638961968
 30
0.0
 40
2.5
  1
shape and positioning tol.:
 41
0.8
 11
0.4263528518317799
 21
28.08786305628635
 31
0.0
100
AcDbText
 73
     1
  0
TEXT
  5
3243
330
3228
100
AcDbEntity
  8
10-TEXT25
 48
10.0
100
AcDbText
 10
0.4263528518317799
 20
25.56614319263586
 30
0.0
 40
2.5
  1
outer shape:
 41
0.8
 11
0.4263528518317799
 21
24.73280985930253
 31
0.0
100
AcDbText
 73
     1
  0
TEXT
  5
3244
330
3228
100
AcDbEntity
  8
10-TEXT25
 48
10.0
100
AcDbText
 10
0.2513335549609792
 20
36.22596144679202
 30
0.0
 40
2.5
  1
Oberfläche:
 41
0.8
 11
0.2513335549609792
 21
35.39262811345869
 31
0.0
100
AcDbText
 73
     1
  0
TEXT
  5
3245
330
3228
100
AcDbEntity
  8
10-TEXT25
 48
10.0
100
AcDbText
 10
0.2513335549609792
 20
40.466272309909
 30
0.0
 40
2.5
  1
Nahtstellen:
 41
0.8
 11
0.2513335549609792
 21
39.63293897657567
 31
0.0
100
AcDbText
 73
     1
  0
TEXT
  5
3246
330
3228
100
AcDbEntity
  8
10-TEXT25
 48
10.0
100
AcDbText
 10
43.92444984952169
 20
40.466272309909
 30
0.0
 40
2.5
  1
geputzt
 41
0.8
 11
43.92444984952169
 21
39.63293897657567
 31
0.0
100
AcDbText
 73
     1
  0
TEXT
  5
3247
330
3228
100
AcDbEntity
  8
09-BEMAßUNG
100
AcDbText
 10
106.6617610269978
 20
10.6662243290374
 30
0.0
 40
2.5
  1
Rauhigkeitsgrad
 41
0.8449931413058884
 72
     5
 11
131.1062054719182
 21
10.6662243290374
 31
0.0
100
AcDbText
  0
LINE
  5
3248
330
3228
100
AcDbEntity
  8
09-BEMAßUNG
100
AcDbLine
 10
179.9611642270757
 20
3.187226134570693
 30
0.0
 11
104.4274529345176
 21
3.187226134570693
 31
0.0
  0
TEXT
  5
3249
330
3228
100
AcDbEntity
  8
09-BEMAßUNG
100
AcDbText
 10
106.6617610269978
 20
5.666224329037419
 30
0.0
 40
2.5
  1
degree of roughness
 41
0.7800995025028297
 72
     5
 11
137.7728721387178
 21
5.666224329037419
 31
0.0
100
AcDbText
  0
LINE
  5
324A
330
3228
100
AcDbEntity
  8
09-BEMAßUNG
100
AcDbLine
 10
179.9611642270757
 20
15.18722613457069
 30
0.0
 11
104.4274529345176
 21
15.18722613457069
 31
0.0
  0
TEXT
  5
324B
330
3228
100
AcDbEntity
  8
09-BEMAßUNG
100
AcDbText
 10
106.6617610269978
 20
18.52240984244596
 30
0.0
 40
2.5
  1
value of roughness
 41
0.7978494623806343
 72
     5
 11
136.1062054719974
 21
18.52240984244596
 31
0.0
100
AcDbText
  0
TEXT
  5
324C
330
3228
100
AcDbEntity
  8
09-BEMAßUNG
100
AcDbText
 10
106.7111173994776
 20
23.38430791010318
 30
0.0
 40
2.5
  1
Rauhigkeitswert
 41
0.8458333333492163
 72
     5
 11
130.8777840665981
 21
23.38430791010318
 31
0.0
100
AcDbText
  0
LINE
  5
324D
330
3228
100
AcDbEntity
  8
09-BEMAßUNG
100
AcDbLine
 10
179.9611642270757
 20
29.18722613457077
 30
0.0
 11
104.4274529345176
 21
29.18722613457077
 31
0.0
  0
TEXT
  5
324E
330
3228
100
AcDbEntity
  8
02-SCHRIFTKOPF
 48
10.0
100
AcDbText
 10
111.8931101706592
 20
37.4523593975629
 30
0.0
 40
2.5
  1
Charge Nr./charge no.
 41
0.75
100
AcDbText
  0
LINE
  5
324F
330
3228
100
AcDbEntity
  8
09-BEMAßUNG
100
AcDbLine
 10
104.4274529345176
 20
3.187226134570693
 30
0.0
 11
104.4274529345176
 21
29.18722613457077
 31
0.0
  0
TEXT
  5
3250
330
3228
100
AcDbEntity
  8
02-SCHRIFTKOPF
 48
10.0
100
AcDbText
 10
106.2515032623547
 20
37.4523593975629
 30
0.0
 40
2.5
  1
2
 41
0.8
100
AcDbText
  0
CIRCLE
  5
3251
330
3228
100
AcDbEntity
  8
02-SCHRIFTKOPF
 48
1.5
100
AcDbCircle
 10
107.0662999992221
 20
38.62868496135175
 30
0.0
 40
2.720629648604097
  0
LINE
  5
3252
330
3228
100
AcDbEntity
  8
09-BEMAßUNG
100
AcDbLine
 10
179.9611642270757
 20
3.187226134570693
 30
0.0
 11
179.9611642270757
 21
29.28841762426476
 31
0.0
  0
LINE
  5
3253
330
3228
100
AcDbEntity
  8
09-BEMAßUNG
100
AcDbLine
 10
168.2552297570454
 20
17.05462872009197
 30
0.0
 11
173.214905184525
 21
26.49311360809078
 31
0.0
  0
ARC
  5
3254
330
3228
100
AcDbEntity
  8
09-BEMAßUNG
100
AcDbCircle
 10
161.6599275285719
 20
22.3193339127485
 30
0.0
 40
13.99410108886195
100
AcDbArc
 50
333.4532480311606
 51
16.79995950044367
  0
ARC
  5
3255
330
3228
100
AcDbEntity
  8
09-BEMAßUNG
100
AcDbCircle
 10
175.8981141680425
 20
22.3193339127485
 30
0.0
 40
13.99410108886195
100
AcDbArc
 50
163.2000404995563
 51
206.5467519688511
  0
LINE
  5
3256
330
3228
100
AcDbEntity
  8
09-BEMAßUNG
100
AcDbLine
 10
153.3028797458856
 20
17.15691821488722
 30
0.0
 11
158.2625551733652
 21
26.59540310288622
 31
0.0
  0
TEXT
  5
3257
330
3228
100
AcDbEntity
  8
09-BEMAßUNG
100
AcDbText
 10
143.5530738938853
 20
22.66753814705784
 30
0.0
 40
2.5
  1
Ra 12,5
 41
0.7291666666383891
 72
     5
 11
154.6641850045655
 21
22.66753814705784
 31
0.0
100
AcDbText
  0
LINE
  5
3258
330
3228
100
AcDbEntity
  8
09-BEMAßUNG
100
AcDbLine
 10
139.1632612447577
 20
3.187226134570693
 30
0.0
 11
139.1632612447577
 21
29.18722613457077
 31
0.0
  0
TEXT
  5
3259
330
3228
100
AcDbEntity
  8
09-BEMAßUNG
100
AcDbText
 10
144.9689011233031
 20
6.942980176650365
 30
0.0
 40
3.5
  1
( N 10 )
 41
0.5324384787382517
 72
     5
 11
158.191123345303
 21
6.942980176650365
 31
0.0
100
AcDbText
  0
LINE
  5
325A
330
3228
100
AcDbEntity
  8
09-BEMAßUNG
100
AcDbLine
 10
151.1091771530058
 20
20.83295969758143
 30
0.0
 11
153.3028797458856
 21
17.15691821488722
 31
0.0
  0
LINE
  5
325B
330
3228
100
AcDbEntity
  8
09-BEMAßUNG
100
AcDbLine
 10
155.2345428071259
 20
20.83295969758143
 30
0.0
 11
151.1091771530058
 21
20.83295969758143
 31
0.0
  0
CIRCLE
  5
325C
330
3228
100
AcDbEntity
  8
09-BEMAßUNG
100
AcDbCircle
 10
168.1271246822026
 20
20.00491854141017
 30
0.0
 40
1.351154414805705
  0
LINE
  5
325D
330
3228
100
AcDbEntity
  8
09-BEMAßUNG
100
AcDbLine
 10
166.0615271641248
 20
20.73067020278634
 30
0.0
 11
168.2552297570454
 21
17.05462872009197
 31
0.0
  0
TEXT
  5
325E
330
3228
100
AcDbEntity
  8
10-TEXT25
 48
10.0
100
AcDbText
 10
43.6981962098813
 20
57.68401038809741
 30
0.0
 40
2.5
  1
bzw. nach Zeichnungsangabe
 41
0.8
 11
43.6981962098813
 21
56.85067705476408
 31
0.0
100
AcDbText
 73
     1
  0
TEXT
  5
325F
330
3228
100
AcDbEntity
  8
10-TEXT25
 48
10.0
100
AcDbText
 10
43.6981962098813
 20
64.93414484136535
 30
0.0
 40
2.5
  1
nach DIN ISO 1101
 41
0.8
 11
43.6981962098813
 21
64.10081150803202
 31
0.0
100
AcDbText
 73
     1
  0
TEXT
  5
3260
330
3228
100
AcDbEntity
  8
10-TEXT25
 48
10.0
100
AcDbText
 10
43.6981962098813
 20
60.89394684584469
 30
0.0
 40
2.5
  1
nach DIN 1684-1, GTA 16/5
 41
0.8
 11
43.6981962098813
 21
60.06061351251137
 31
0.0
100
AcDbText
 73
     1
  0
TEXT
  5
3261
330
3228
100
AcDbEntity
  8
10-TEXT25
 48
10.0
100
AcDbText
 10
43.92444984952169
 20
49.37629100917938
 30
0.0
 40
2.5
  1
entgratet
 41
0.8
 11
43.92444984952169
 21
48.54295767584606
 31
0.0
100
AcDbText
 73
     1
  0
TEXT
  5
3262
330
3228
100
AcDbEntity
  8
10-TEXT25
 48
10.0
100
AcDbText
 10
0.51440915880778
 20
64.93414484136535
 30
0.0
 40
2.5
  1
Form-und Lagetoleranzen:
 41
0.8
 11
0.51440915880778
 21
64.10081150803202
 31
0.0
100
AcDbText
 73
     1
  0
TEXT
  5
3263
330
3228
100
AcDbEntity
  8
10-TEXT25
 48
10.0
100
AcDbText
 10
0.3155216441317634
 20
53.16917428264303
 30
0.0
 40
2.5
  1
nicht vermaßte Radien:
 41
0.8
 11
0.3155216441317634
 21
52.3358409493097
 31
0.0
100
AcDbText
 73
     1
  0
TEXT
  5
3264
330
3228
100
AcDbEntity
  8
10-TEXT25
 48
10.0
100
AcDbText
 10
0.3155216441317634
 20
49.17133951868975
 30
0.0
 40
2.5
  1
Außenkanten:
 41
0.8
 11
0.3155216441317634
 21
48.33800618535642
 31
0.0
100
AcDbText
 73
     1
  0
TEXT
  5
3265
330
3228
100
AcDbEntity
  8
10-TEXT25
 48
10.0
100
AcDbText
 10
0.51440915880778
 20
60.89394684584469
 30
0.0
 40
2.5
  1
Außenform:
 41
0.8
 11
0.51440915880778
 21
60.06061351251137
 31
0.0
100
AcDbText
 73
     1
  0
TEXT
  5
3266
330
3228
100
AcDbEntity
  8
10-TEXT25
 48
10.0
100
AcDbText
 10
43.92444984952169
 20
53.37412577313266
 30
0.0
 40
2.5
  1
R 2,0
 41
0.8
 11
43.92444984952169
 21
52.54079243979933
 31
0.0
100
AcDbText
 73
     1
  0
TEXT
  5
3267
330
3228
100
AcDbEntity
  8
02-SCHRIFTKOPF
 48
10.0
100
AcDbText
 10
111.8931101706592
 20
51.84369032834789
 30
0.0
 40
2.5
  1
Herstellerzeichen SAH / manufacturer mark SAH
 41
0.75
100
AcDbText
  0
TEXT
  5
3268
330
3228
100
AcDbEntity
  8
02-SCHRIFTKOPF
 62
     7
 48
10.0
100
AcDbText
 10
106.0529386534668
 20
51.84369032834789
 30
0.0
 40
3.5
  1
A
 41
0.8
100
AcDbText
  0
ENDBLK
  5
326A
330
3228
100
AcDbEntity
  8
0
100
AcDbBlockEnd
  0
BLOCK
  5
3746
330
3741
100
AcDbEntity
  8
0
100
AcDbBlockBegin
  2
A$C8175
 70
     0
 10
0.0
 20
0.0
 30
0.0
  3
A$C8175
  1

  0
TOLERANCE
  5
3742
330
3741
100
AcDbEntity
  8
09-BEMAßUNG
 48
10.0
100
AcDbFcf
  3
STANDARD
 10
3.814400006760479
 20
0.2503574231404855
 30
0.0
  1
{\Fgdt;b}%%v1,0%%vA%%v%%v%%v
 11
0.0
 21
1.0
 31
0.0
1001
ACAD
1000
DSTYLE
1002
{
1070
   140
1040
2.740515647399974
1070
   147
1040
1.370257823699987
1070
   271
1070
     2
1070
   178
1070
     1
1002
}
  0
LEADER
  5
3743
330
3741
100
AcDbEntity
  8
06-SCHRAFFUR
 62
     6
100
AcDbLeader
  3
STANDARD
 76
     3
 10
25.16191153372017
 20
45.76648208131587
 30
0.0
 10
3.881215286005726
 20
45.76648208131587
 30
0.0
 10
3.881215286005726
 20
19.14110901898709
 30
0.0
1001
ACAD
1000
DSTYLE
1002
{
1070
   288
1070
     1
1070
   140
1040
3.5
1070
    47
1040
1.0
1070
   283
1070
     0
1070
    74
1070
     0
1070
   172
1070
     1
1070
    73
1070
     0
1070
   146
1040
0.7
1070
   272
1070
     0
1070
    77
1070
     1
1070
   147
1040
2.0
1070
   287
1070
     1
1070
    44
1040
2.0
1070
    43
1040
0.0
1070
   271
1070
     0
1070
   178
1070
     1
1070
   177
1070
     6
1070
   176
1070
     6
1070
    41
1040
4.0
1002
}
  0
LEADER
  5
3744
330
3741
100
AcDbEntity
  8
06-SCHRAFFUR
 62
     6
100
AcDbLeader
  3
STANDARD
 76
     3
 10
94.97163480822246
 20
45.76648208131587
 30
0.0
 10
116.2523310559369
 20
45.76648208131587
 30
0.0
 10
116.2523310559369
 20
19.14110901898709
 30
0.0
211
-1.0
221
0.0
231
0.0
1001
ACAD
1000
DSTYLE
1002
{
1070
   288
1070
     1
1070
   140
1040
3.5
1070
    47
1040
1.0
1070
   283
1070
     0
1070
    74
1070
     0
1070
   172
1070
     1
1070
    73
1070
     0
1070
   146
1040
0.7
1070
   272
1070
     0
1070
    77
1070
     1
1070
   147
1040
2.0
1070
   287
1070
     1
1070
    44
1040
2.0
1070
    43
1040
0.0
1070
   271
1070
     0
1070
   178
1070
     1
1070
   177
1070
     6
1070
   176
1070
     6
1070
    41
1040
4.0
1002
}
  0
TOLERANCE
  5
3745
330
3741
100
AcDbEntity
  8
09-BEMAßUNG
 48
10.0
100
AcDbFcf
  3
STANDARD
 10
117.000195941065
 20
0.2503574231404855
 30
0.0
  1
{\Fgdt;b}%%v1,5%%vA%%v%%v%%v
 11
0.0
 21
1.0
 31
0.0
1001
ACAD
1000
DSTYLE
1002
{
1070
   140
1040
2.740515647399974
1070
   147
1040
1.370257823699987
1070
   271
1070
     2
1070
   178
1070
     1
1002
}
  0
ENDBLK
  5
3747
330
3741
100
AcDbEntity
  8
0
100
AcDbBlockEnd
  0
BLOCK
  5
3766
330
3761
100
AcDbEntity
  8
0
100
AcDbBlockBegin
  2
A
 70
     0
 10
0.0
 20
0.0
 30
0.0
  3
A
  1

  0
LINE
  5
3762
330
3761
100
AcDbEntity
  8
09-INDIZEES
 62
     6
 48
10.0
100
AcDbLine
 10
3.454424660843073
 20
0.0
 30
0.0
 11
-3.454424660843187
 21
0.0
 31
0.0
  0
LINE
  5
3763
330
3761
100
AcDbEntity
  8
09-INDIZEES
 62
     6
 48
10.0
100
AcDbLine
 10
3.454424660843073
 20
0.0
 30
0.0
 11
-0.0000000000002274
 21
6.913801590111916
 31
0.0
  0
LINE
  5
3764
330
3761
100
AcDbEntity
  8
09-INDIZEES
 62
     6
 48
10.0
100
AcDbLine
 10
-0.0000000000002274
 20
6.913801590111916
 30
0.0
 11
-3.454424660843187
 21
0.0
 31
0.0
  0
MTEXT
  5
3765
330
3761
100
AcDbEntity
  8
09-INDIZEES
  6
ByBlock
 62
     1
 48
10.0
100
AcDbMText
 10
-0.1249700480950651
 20
2.9110834848791
 30
0.0
 40
3.75
 41
0.0
 71
     5
 72
     5
  1
{a}
 73
     1
 44
1.0
  0
ENDBLK
  5
3767
330
3761
100
AcDbEntity
  8
0
100
AcDbBlockEnd
  0
BLOCK
  5
378E
330
376F
100
AcDbEntity
  8
0
100
AcDbBlockBegin
  2
GUßTEILE
 70
     0
 10
0.0
 20
0.0
 30
0.0
  3
GUßTEILE
  1

  0
TEXT
  5
3770
330
376F
100
AcDbEntity
  8
10-TEXT25
 48
10.0
100
AcDbText
 10
42.56784117364373
 20
26.37607179550231
 30
0.0
 40
2.5
  1
and/or acc. to drawing data
 41
0.8
 11
42.56784117364373
 21
25.54273846216898
 31
0.0
100
AcDbText
 73
     1
  0
TEXT
  5
3771
330
376F
100
AcDbEntity
  8
10-TEXT25
 48
10.0
100
AcDbText
 10
42.56784117364373
 20
17.68900308149911
 30
0.0
 40
2.5
  1
and/or acc. to drawing data
 41
0.8
 11
42.56784117364373
 21
16.85566974816578
 31
0.0
100
AcDbText
 73
     1
  0
TEXT
  5
3772
330
376F
100
AcDbEntity
  8
10-TEXT25
 48
10.0
100
AcDbText
 10
42.56783973831306
 20
21.97424142305046
 30
0.0
 40
2.5
  1
acc. to DIN 1684-1, GTA 16/5
 41
0.8
 11
42.56783973831306
 21
21.14090808971713
 31
0.0
100
AcDbText
 73
     1
  0
TEXT
  5
3773
330
376F
100
AcDbEntity
  8
10-TEXT25
 48
10.0
100
AcDbText
 10
-0.6836220122920622
 20
21.97424142305046
 30
0.0
 40
2.5
  1
outer shape:
 41
0.8
 11
-0.6836220122920622
 21
21.14090808971713
 31
0.0
100
AcDbText
 73
     1
  0
TEXT
  5
3774
330
376F
100
AcDbEntity
  8
10-TEXT25
 48
10.0
100
AcDbText
 10
42.43746896965819
 20
55.21464684249679
 30
0.0
 40
2.5
  1
bzw. nach Zeichnungsangabe
 41
0.8
 11
42.43746896965819
 21
54.38131350916345
 31
0.0
100
AcDbText
 73
     1
  0
TEXT
  5
3775
330
376F
100
AcDbEntity
  8
10-TEXT25
 48
10.0
100
AcDbText
 10
42.59252447173355
 20
59.12804179959916
 30
0.0
 40
2.5
  1
nach DIN 1684-1, GTA 16/5
 41
0.8
 11
42.59252447173355
 21
58.29470846626583
 31
0.0
100
AcDbText
 73
     1
  0
TEXT
  5
3776
330
376F
100
AcDbEntity
  8
10-TEXT25
 48
10.0
100
AcDbText
 10
-0.1914437155950281
 20
58.92309030910953
 30
0.0
 40
2.5
  1
Außenform:
 41
0.8
 11
-0.1914437155950281
 21
58.08975697577619
 31
0.0
100
AcDbText
 73
     1
  0
TEXT
  5
3777
330
376F
100
AcDbEntity
  8
10-TEXT25
 48
10.0
100
AcDbText
 10
-0.7463180814153248
 20
71.58224636539158
 30
0.0
 40
2.5
  1
Fertigungstoleranzen:
 41
0.8
 11
-0.7463180814153248
 21
70.74891303205825
 31
0.0
100
AcDbText
 73
     1
  0
TEXT
  5
3778
330
376F
100
AcDbEntity
  8
10-TEXT25
 48
10.0
100
AcDbText
 10
42.45012676127283
 20
50.64067038983332
 30
0.0
 40
2.5
  1
R 2,0
 41
0.8
 11
42.45012676127283
 21
49.80733705649999
 31
0.0
100
AcDbText
 73
     1
  0
TEXT
  5
3779
330
376F
100
AcDbEntity
  8
10-TEXT25
 48
10.0
100
AcDbText
 10
42.45012819660348
 20
38.2100881525903
 30
0.0
 40
2.5
  1
roh
 41
0.8
 11
42.45012819660348
 21
37.37675481925697
 31
0.0
100
AcDbText
 73
     1
  0
TEXT
  5
377A
330
376F
100
AcDbEntity
  8
10-TEXT25
 48
10.0
100
AcDbText
 10
42.59252447173355
 20
42.4657025000097
 30
0.0
 40
2.5
  1
entgratet
 41
0.8
 11
42.59252447173355
 21
41.63236916667637
 31
0.0
100
AcDbText
 73
     1
  0
TEXT
  5
377B
330
376F
100
AcDbEntity
  8
10-TEXT25
 48
10.0
100
AcDbText
 10
42.59252447173355
 20
46.64283562588004
 30
0.0
 40
2.5
  1
entgratet
 41
0.8
 11
42.59252447173355
 21
45.8095022925467
 31
0.0
100
AcDbText
 73
     1
  0
TEXT
  5
377C
330
376F
100
AcDbEntity
  8
10-TEXT25
 48
10.0
100
AcDbText
 10
-0.5571365569643377
 20
38.2100881525903
 30
0.0
 40
2.5
  1
Oberfläche:
 41
0.8
 11
-0.5571365569643377
 21
37.37675481925697
 31
0.0
100
AcDbText
 73
     1
  0
TEXT
  5
377D
330
376F
100
AcDbEntity
  8
10-TEXT25
 48
10.0
100
AcDbText
 10
-0.1914437155950281
 20
46.43788413539041
 30
0.0
 40
2.5
  1
Außenkanten:
 41
0.8
 11
-0.1914437155950281
 21
45.60455080205708
 31
0.0
100
AcDbText
 73
     1
  0
TEXT
  5
377E
330
376F
100
AcDbEntity
  8
10-TEXT25
 48
10.0
100
AcDbText
 10
-0.6836220122920622
 20
34.16416057505878
 30
0.0
 40
2.5
  1
manufacturing tolerances:
 41
0.8
 11
-0.6836220122920622
 21
33.33082724172544
 31
0.0
100
AcDbText
 73
     1
  0
TEXT
  5
377F
330
376F
100
AcDbEntity
  8
10-TEXT25
 48
10.0
100
AcDbText
 10
-0.643700843892816
 20
50.43571889934369
 30
0.0
 40
2.5
  1
nicht vermaßte Radien:
 41
0.8
 11
-0.643700843892816
 21
49.60238556601035
 31
0.0
100
AcDbText
 73
     1
  0
TEXT
  5
3780
330
376F
100
AcDbEntity
  8
10-TEXT25
 48
10.0
100
AcDbText
 10
-0.5571365569643377
 20
42.4657025000097
 30
0.0
 40
2.5
  1
Gewindeanfang/-ende:
 41
0.8
 11
-0.5571365569643377
 21
41.63236916667637
 31
0.0
100
AcDbText
 73
     1
  0
TEXT
  5
3781
330
376F
100
AcDbEntity
  8
10-TEXT25
 48
10.0
100
AcDbText
 10
42.58050040058901
 20
9.28516132106076
 30
0.0
 40
2.5
  1
deburred
 41
0.8
 11
42.58050040058901
 21
8.451827987727426
 31
0.0
100
AcDbText
 73
     1
  0
TEXT
  5
3782
330
376F
100
AcDbEntity
  8
10-TEXT25
 48
10.0
100
AcDbText
 10
42.43810269012806
 20
0.9387353567513134
 30
0.0
 40
2.5
  1
rough
 41
0.8
 11
42.43810269012806
 21
0.1054020234179802
 31
0.0
100
AcDbText
 73
     1
  0
TEXT
  5
3783
330
376F
100
AcDbEntity
  8
10-TEXT25
 48
10.0
100
AcDbText
 10
42.58049896525835
 20
4.995838062850471
 30
0.0
 40
2.5
  1
deburred
 41
0.8
 11
42.58049896525835
 21
4.162504729517138
 31
0.0
100
AcDbText
 73
     1
  0
TEXT
  5
3784
330
376F
100
AcDbEntity
  8
10-TEXT25
 48
10.0
100
AcDbText
 10
-0.6372324226263118
 20
9.080209830571126
 30
0.0
 40
2.5
  1
outer edges:
 41
0.8
 11
-0.6372324226263118
 21
8.246876497237792
 31
0.0
100
AcDbText
 73
     1
  0
TEXT
  5
3785
330
376F
100
AcDbEntity
  8
10-TEXT25
 48
10.0
100
AcDbText
 10
-0.6134150767143183
 20
0.9387353567513134
 30
0.0
 40
2.5
  1
surface:
 41
0.8
 11
-0.6134150767143183
 21
0.1054020234179802
 31
0.0
100
AcDbText
 73
     1
  0
TEXT
  5
3786
330
376F
100
AcDbEntity
  8
10-TEXT25
 48
10.0
100
AcDbText
 10
-0.4814069240906064
 20
4.995838062850471
 30
0.0
 40
2.5
  1
thread:
 41
0.8
 11
-0.4814069240906065
 21
4.162504729517138
 31
0.0
100
AcDbText
 73
     1
  0
TEXT
  5
3787
330
376F
100
AcDbEntity
  8
10-TEXT25
 48
10.0
100
AcDbText
 10
-0.725237857709999
 20
12.80233192094819
 30
0.0
 40
2.5
  1
not dimensioned radii:
 41
0.8
 11
-0.725237857709999
 21
11.96899858761486
 31
0.0
100
AcDbText
 73
     1
  0
TEXT
  5
3788
330
376F
100
AcDbEntity
  8
10-TEXT25
 48
10.0
100
AcDbText
 10
42.43810269012828
 20
13.00728341143783
 30
0.0
 40
2.5
  1
R 2,0
 41
0.8
 11
42.43810269012828
 21
12.17395007810449
 31
0.0
100
AcDbText
 73
     1
  0
TEXT
  5
3789
330
376F
100
AcDbEntity
  8
10-TEXT25
 48
10.0
100
AcDbText
 10
42.56783973831306
 20
34.16416057505878
 30
0.0
 40
2.5
  1
acc. to DIN ISO 2768-1 class c
 41
0.8
 11
42.56783973831306
 21
33.33082724172544
 31
0.0
100
AcDbText
 73
     1
  0
TEXT
  5
378A
330
376F
100
AcDbEntity
  8
10-TEXT25
 48
10.0
100
AcDbText
 10
55.70197996937849
 20
30.24819547066137
 30
0.0
 40
2.5
  1
DIN ISO 2768-2 class L
 41
0.8
 11
55.70197996937849
 21
29.41486213732804
 31
0.0
100
AcDbText
 73
     1
  0
TEXT
  5
378B
330
376F
100
AcDbEntity
  8
10-TEXT25
 48
10.0
100
AcDbText
 10
51.52041487277085
 20
67.51361171535619
 30
0.0
 40
2.5
  1
DIN ISO 2768-2 Klasse L
 41
0.8
 11
51.52041487277085
 21
66.68027838202286
 31
0.0
100
AcDbText
 73
     1
  0
TEXT
  5
378C
330
376F
100
AcDbEntity
  8
10-TEXT25
 48
10.0
100
AcDbText
 10
42.43746896965819
 20
71.58224636539158
 30
0.0
 40
2.5
  1
nach DIN ISO 2768-1 Klasse c
 41
0.8
 11
42.43746896965819
 21
70.74891303205825
 31
0.0
100
AcDbText
 73
     1
  0
TEXT
  5
378D
330
376F
100
AcDbEntity
  8
10-TEXT25
 48
10.0
100
AcDbText
 10
42.43746896965819
 20
63.68979583438806
 30
0.0
 40
2.5
  1
bzw. nach Zeichnungsangabe
 41
0.8
 11
42.43746896965819
 21
62.85646250105472
 31
0.0
100
AcDbText
 73
     1
  0
ENDBLK
  5
378F
330
376F
100
AcDbEntity
  8
0
100
AcDbBlockEnd
  0
BLOCK
  5
3792
330
3790
100
AcDbEntity
  8
0
100
AcDbBlockBegin
  2
EN-GJS-500
 70
     0
 10
0.0
 20
0.0
 30
0.0
  3
EN-GJS-500
  1

  0
TEXT
  5
3791
330
3790
100
AcDbEntity
  8
10-TEXT25
 48
10.0
100
AcDbText
 10
-0.0010436810157585
 20
2.963657820226396
 30
-3.51
 40
3.5
  1
HBW 10/3000 170-230
 41
0.8
 72
     2
 11
52.53228965231755
 21
1.79699115355973
 31
-3.51
100
AcDbText
 73
     1
  0
ENDBLK
  5
3793
330
3790
100
AcDbEntity
  8
0
100
AcDbBlockEnd
  0
BLOCK
  5
379E
330
3794
100
AcDbEntity
  8
0
100
AcDbBlockBegin
  2
Adresse
 70
     0
 10
0.0
 20
0.0
 30
0.0
  3
Adresse
  1

  0
TEXT
  5
3795
330
3794
100
AcDbEntity
  8
02-SCHRIFTKOPF
 62
     6
 48
1.5
100
AcDbText
 10
822.5884360574356
 20
-74.21208536970673
 30
0.0
 40
1.8
  1
e-mail
100
AcDbText
  0
TEXT
  5
3796
330
3794
100
AcDbEntity
  8
02-SCHRIFTKOPF
 62
     6
 48
1.5
100
AcDbText
 10
822.5565317960089
 20
-70.4679584817205
 30
0.0
 40
1.8
  1
Fax.
100
AcDbText
  0
TEXT
  5
3797
330
3794
100
AcDbEntity
  8
02-SCHRIFTKOPF
 62
     6
 48
1.5
100
AcDbText
 10
822.5884360574356
 20
-65.89663912540763
 30
0.0
 40
1.8
  1
Tel.
100
AcDbText
  0
TEXT
  5
3798
330
3794
100
AcDbEntity
  8
02-SCHRIFTKOPF
 62
     6
 48
1.5
100
AcDbText
 10
822.5965191984011
 20
-58.19448572491032
 30
0.0
 40
2.0
  1
Stahlwerk Annahütte Systemtechnik GmbH
 41
0.7
100
AcDbText
  0
TEXT
  5
3799
330
3794
100
AcDbEntity
  8
02-SCHRIFTKOPF
 62
     6
 48
1.5
100
AcDbText
 10
822.7422992237942
 20
-61.74317405985309
 30
0.0
 40
1.8
  1
D-83404 Hammerau
 41
0.8
100
AcDbText
  0
TEXT
  5
379A
330
3794
100
AcDbEntity
  8
02-SCHRIFTKOPF
 62
     6
 48
1.5
100
AcDbText
 10
836.2715555495903
 20
-65.89663912540763
 30
0.0
 40
1.8
  1
+49/(0)86 54-487-0
 41
0.9
100
AcDbText
  0
TEXT
  5
379B
330
3794
100
AcDbEntity
  8
02-SCHRIFTKOPF
 62
     6
 48
1.5
100
AcDbText
 10
836.2777794449742
 20
-70.31381295013133
 30
0.0
 40
1.8
  1
+49/(0)86 54-487-960
 41
0.9
100
AcDbText
  0
TEXT
  5
379C
330
3794
100
AcDbEntity
  8
02-SCHRIFTKOPF
 62
     6
 48
1.5
100
AcDbText
 10
835.4801734066787
 20
-74.21208536970673
 30
0.0
 40
1.8
  1
stahlwerk@annahuette.com
 41
0.9
100
AcDbText
  0
TEXT
  5
379D
330
3794
100
AcDbEntity
  8
02-SCHRIFTKOPF
 62
     6
 48
1.5
100
AcDbText
 10
835.4801734066787
 20
-77.43336069685844
 30
0.0
 40
1.8
  1
www.annahuette.com
 41
0.9
100
AcDbText
  0
ENDBLK
  5
379F
330
3794
100
AcDbEntity
  8
0
100
AcDbBlockEnd
  0
BLOCK
  5
37A2
330
37A0
100
AcDbEntity
  8
0
100
AcDbBlockBegin
  2
A$C9213
 70
     0
 10
0.0
 20
0.0
 30
0.0
  3
A$C9213
  1

  0
INSERT
  5
37A1
330
37A0
100
AcDbEntity
  8
10-TEXT25
100
AcDbBlockReference
  2
GUßTEILE
 10
0.8258456573418015
 20
0.1761852478087604
 30
0.0
  0
ENDBLK
  5
37A3
330
37A0
100
AcDbEntity
  8
0
100
AcDbBlockEnd
  0
BLOCK
  5
37C4
330
37BF
100
AcDbEntity
  8
0
100
AcDbBlockBegin
  2
A$C12473A88
 70
     0
 10
0.0
 20
0.0
 30
0.0
  3
A$C12473A88
  1

  0
TEXT
  5
37C0
330
37BF
100
AcDbEntity
  8
02-SCHRIFTKOPF
 62
     6
 48
1.5
100
AcDbText
 10
-0.2035710388945517
 20
0.6333324549124276
 30
0.0
 40
1.9
  1
c
 41
0.75
 11
-0.2035710388945517
 21
-0.0000008784209058
 31
0.0
100
AcDbText
 73
     1
  0
TEXT
  5
37C1
330
37BF
100
AcDbEntity
  8
02-SCHRIFTKOPF
 62
     6
 48
1.5
100
AcDbText
 10
8.099902462595309
 20
0.6333331196439152
 30
0.0
 40
1.9
  1
01.10.02
 41
0.75
 11
8.099902462595309
 21
-0.0000002136894182
 31
0.0
100
AcDbText
 73
     1
  0
TEXT
  5
37C2
330
37BF
100
AcDbEntity
  8
02-SCHRIFTKOPF
 62
     6
 48
1.5
100
AcDbText
 10
26.04771423125248
 20
0.6333331196439152
 30
0.0
 40
1.9
  1
Sz
 41
0.75
 11
26.04771423125248
 21
-0.0000002136894182
 31
0.0
100
AcDbText
 73
     1
  0
TEXT
  5
37C3
330
37BF
100
AcDbEntity
  8
02-SCHRIFTKOPF
 62
     6
 48
1.5
100
AcDbText
 10
48.95583728332804
 20
0.6333331196439152
 30
0.0
 40
1.9
  1
Änd. Adresse, Gewicht, Herstellerzeichen, Form- und Lagetoleranzen, AÜK entfernt
 41
0.75
 11
48.95583728332804
 21
-0.0000002136894182
 31
0.0
100
AcDbText
 73
     1
  0
ENDBLK
  5
37C5
330
37BF
100
AcDbEntity
  8
0
100
AcDbBlockEnd
  0
ENDSEC
  0
SECTION
  2
ENTITIES
  0
LINE
  5
3152
330
1503
100
AcDbEntity
  8
03-KONTUR
100
AcDbLine
 10
728.1157016008513
 20
72.78681220252792
 30
0.0
 11
768.1157016008521
 21
95.88082297011352
 31
0.0
  0
LINE
  5
3153
330
1503
100
AcDbEntity
  8
03-KONTUR
100
AcDbLine
 10
728.1157016008517
 20
26.59879066735861
 30
0.0
 11
728.1157016008513
 21
72.78681220252792
 31
0.0
  0
LINE
  5
3154
330
1503
100
AcDbEntity
  8
03-KONTUR
100
AcDbLine
 10
768.1157016008508
 20
3.504779899772813
 30
0.0
 11
728.1157016008517
 21
26.59879066735861
 31
0.0
  0
LINE
  5
3155
330
1503
100
AcDbEntity
  8
03-KONTUR
100
AcDbLine
 10
768.1157016008508
 20
3.504779899772813
 30
0.0
 11
808.1157016008511
 21
26.59879066735807
 31
0.0
  0
LINE
  5
3156
330
1503
100
AcDbEntity
  8
03-KONTUR
100
AcDbLine
 10
808.1157016008511
 20
26.59879066735807
 30
0.0
 11
808.1157016008511
 21
72.78681220252744
 31
0.0
  0
LINE
  5
3157
330
1503
100
AcDbEntity
  8
03-KONTUR
100
AcDbLine
 10
808.1157016008511
 20
72.78681220252744
 30
0.0
 11
768.1157016008521
 21
95.88082297011352
 31
0.0
  0
CIRCLE
  5
31A6
330
1503
100
AcDbEntity
  8
03-KONTUR
100
AcDbCircle
 10
768.1157016008515
 20
49.69280143494313
 30
0.0
 40
24.75
  0
CIRCLE
  5
3652
330
1503
100
AcDbEntity
  8
03-KONTUR
100
AcDbCircle
 10
768.7879198727342
 20
49.43326890963238
 30
0.0
 40
75.0
  0
ENDSEC
  0
SECTION
  2
OBJECTS
  0
DICTIONARY
  5
14F7
330
0
100
AcDbDictionary
281
     1
  3
ACAD_GROUP
350
14F8
  3
ACAD_LAYOUT
350
375A
  3
ACAD_MLINESTYLE
350
14F9
  3
ACAD_PLOTSETTINGS
350
375B
  3
ACAD_PLOTSTYLENAME
350
3758
  3
AcDbVariableDictionary
350
37EA
  0
DICTIONARY
  5
14F8
102
{ACAD_REACTORS
330
14F7
102
}
330
14F7
100
AcDbDictionary
281
     1
  0
DICTIONARY
  5
375A
102
{ACAD_REACTORS
330
14F7
102
}
330
14F7
100
AcDbDictionary
281
     1
  3
Layout1
350
375D
  3
Model
350
375C
  0
DICTIONARY
  5
14F9
102
{ACAD_REACTORS
330
14F7
102
}
330
14F7
100
AcDbDictionary
281
     1
  3
STANDARD
350
1506
  0
DICTIONARY
  5
375B
102
{ACAD_REACTORS
330
14F7
102
}
330
14F7
100
AcDbDictionary
281
     1
  0
ACDBDICTIONARYWDFLT
  5
3758
102
{ACAD_REACTORS
330
14F7
102
}
330
14F7
100
AcDbDictionary
281
     1
  3
Normal
350
3759
100
AcDbDictionaryWithDefault
340
3759
  0
DICTIONARY
  5
37EA
102
{ACAD_REACTORS
330
14F7
102
}
330
14F7
100
AcDbDictionary
281
     1
  3
SORTENTS
350
37EB
  0
LAYOUT
  5
375D
102
{ACAD_REACTORS
330
375A
102
}
330
375A
100
AcDbPlotSettings
  1

  2
Kyocera Mita FS-1000+
  4

  6

 40
0.0
 41
0.0
 42
0.0
 43
0.0
 44
0.0
 45
0.0
 46
0.0
 47
0.0
 48
0.0
 49
0.0
140
0.0
141
0.0
142
1.0
143
1.0
 70
   688
 72
     0
 73
     0
 74
     5
  7

 75
    16
147
1.0
148
0.0
149
0.0
100
AcDbLayout
  1
Layout1
 70
     1
 71
     1
 10
0.0
 20
0.0
 11
12.0
 21
9.0
 12
0.0
 22
0.0
 32
0.0
 14
1.000000000000000E+20
 24
1.000000000000000E+20
 34
1.000000000000000E+20
 15
-1.000000000000000E+20
 25
-1.000000000000000E+20
 35
-1.000000000000000E+20
146
0.0
 13
0.0
 23
0.0
 33
0.0
 16
1.0
 26
0.0
 36
0.0
 17
0.0
 27
1.0
 37
0.0
 76
     0
330
1500
  0
LAYOUT
  5
375C
102
{ACAD_REACTORS
330
375A
102
}
330
375A
100
AcDbPlotSettings
  1

  2
PR-EF
  4
A4
  6

 40
6.805083274841308
 41
5.154074668884277
 42
6.847427368164062
 43
4.9847412109375
 44
210.0156707763671
 45
297.0106506347656
 46
0.0
 47
8.96
 48
543.2162585118873
 49
-136.9929676107041
140
920.5562585118872
141
138.507032389296
142
1.0
143
1.403012661911184
 70
 11956
 72
     1
 73
     1
 74
     4
  7

 75
     0
147
0.7127519424078466
148
-543.2162585118873
149
136.9929676107041
100
AcDbLayout
  1
Model
 70
     1
 71
     0
 10
0.0
 20
0.0
 11
12.0
 21
9.0
 12
0.0
 22
0.0
 32
0.0
 14
0.0
 24
0.0
 34
0.0
 15
0.0
 25
0.0
 35
0.0
146
0.0
 13
0.0
 23
0.0
 33
0.0
 16
1.0
 26
0.0
 36
0.0
 17
0.0
 27
1.0
 37
0.0
 76
     0
330
1503
  0
MLINESTYLE
  5
1506
102
{ACAD_REACTORS
330
14F9
102
}
330
14F9
100
AcDbMlineStyle
  2
STANDARD
 70
     0
  3

 62
     0
 51
90.0
 52
90.0
 71
     2
 49
0.5
 62
   256
  6
BYLAYER
 49
-0.5
 62
   256
  6
BYLAYER
  0
ACDBPLACEHOLDER
  5
3759
102
{ACAD_REACTORS
330
3758
102
}
330
3758
  0
DICTIONARYVAR
  5
37EB
102
{ACAD_REACTORS
330
37EA
102
}
330
37EA
100
DictionaryVariables
280
     0
  1
1
  0
ENDSEC
  0
EOF
