  0
SECTION
  2
HEADER
  9
$ACADVER
  1
AC1015
  9
$ACADMAINTVER
 70
    10
  9
$DWGCODEPAGE
  3
ANSI_1252
  9
$INSBASE
 10
0.0
 20
0.0
 30
0.0
  9
$EXTMIN
 10
619.0641171215223
 20
-3.977599368125538
 30
0.0
  9
$EXTMAX
 10
719.0641171215227
 20
96.0224006318745
 30
0.0
  9
$LIMMIN
 10
0.0
 20
0.0
  9
$LIMMAX
 10
12.0
 20
9.0
  9
$ORTHOMODE
 70
     0
  9
$REGENMODE
 70
     1
  9
$FILLMODE
 70
     1
  9
$QTEXTMODE
 70
     0
  9
$MIRRTEXT
 70
     1
  9
$LTSCALE
 40
25.0
  9
$ATTMODE
 70
     1
  9
$TEXTSIZE
 40
5.0
  9
$TRACEWID
 40
0.05
  9
$TEXTSTYLE
  7
STANDARD
  9
$CLAYER
  8
03-KONTUR
  9
$CELTYPE
  6
BYLAYER
  9
$CECOLOR
 62
   256
  9
$CELTSCALE
 40
1.0
  9
$DISPSILH
 70
     0
  9
$DIMSCALE
 40
1.0
  9
$DIMASZ
 40
4.0
  9
$DIMEXO
 40
0.0625
  9
$DIMDLI
 40
0.0
  9
$DIMRND
 40
0.0
  9
$DIMDLE
 40
0.0
  9
$DIMEXE
 40
2.0
  9
$DIMTP
 40
1.0
  9
$DIMTM
 40
0.0
  9
$DIMTXT
 40
3.5
  9
$DIMCEN
 40
0.09
  9
$DIMTSZ
 40
0.0
  9
$DIMTOL
 70
     0
  9
$DIMLIM
 70
     0
  9
$DIMTIH
 70
     0
  9
$DIMTOH
 70
     0
  9
$DIMSE1
 70
     0
  9
$DIMSE2
 70
     0
  9
$DIMTAD
 70
     1
  9
$DIMZIN
 70
     0
  9
$DIMBLK
  1

  9
$DIMASO
 70
     1
  9
$DIMSHO
 70
     1
  9
$DIMPOST
  1

  9
$DIMAPOST
  1

  9
$DIMALT
 70
     0
  9
$DIMALTD
 70
     2
  9
$DIMALTF
 40
25.4
  9
$DIMLFAC
 40
1.0
  9
$DIMTOFL
 70
     1
  9
$DIMTVP
 40
0.0
  9
$DIMTIX
 70
     0
  9
$DIMSOXD
 70
     0
  9
$DIMSAH
 70
     0
  9
$DIMBLK1
  1

  9
$DIMBLK2
  1

  9
$DIMSTYLE
  2
STANDARD
  9
$DIMCLRD
 70
     6
  9
$DIMCLRE
 70
     6
  9
$DIMCLRT
 70
     1
  9
$DIMTFAC
 40
0.7
  9
$DIMGAP
 40
2.0
  9
$DIMJUST
 70
     0
  9
$DIMSD1
 70
     0
  9
$DIMSD2
 70
     0
  9
$DIMTOLJ
 70
     0
  9
$DIMTZIN
 70
     0
  9
$DIMALTZ
 70
     0
  9
$DIMALTTZ
 70
     0
  9
$DIMUPT
 70
     0
  9
$DIMDEC
 70
     0
  9
$DIMTDEC
 70
     0
  9
$DIMALTU
 70
     2
  9
$DIMALTTD
 70
     2
  9
$DIMTXSTY
  7
STANDARD
  9
$DIMAUNIT
 70
     0
  9
$DIMADEC
 70
     0
  9
$DIMALTRND
 40
0.0
  9
$DIMAZIN
 70
     0
  9
$DIMDSEP
 70
    46
  9
$DIMATFIT
 70
     3
  9
$DIMFRAC
 70
     0
  9
$DIMLDRBLK
  1

  9
$DIMLUNIT
 70
     2
  9
$DIMLWD
 70
    -2
  9
$DIMLWE
 70
    -2
  9
$DIMTMOVE
 70
     0
  9
$LUNITS
 70
     2
  9
$LUPREC
 70
     4
  9
$SKETCHINC
 40
0.1
  9
$FILLETRAD
 40
0.0
  9
$AUNITS
 70
     0
  9
$AUPREC
 70
     0
  9
$MENU
  1
.
  9
$ELEVATION
 40
0.0
  9
$PELEVATION
 40
0.0
  9
$THICKNESS
 40
0.0
  9
$LIMCHECK
 70
     0
  9
$CHAMFERA
 40
3.0
  9
$CHAMFERB
 40
3.0
  9
$CHAMFERC
 40
0.0
  9
$CHAMFERD
 40
0.0
  9
$SKPOLY
 70
     0
  9
$TDCREATE
 40
2450597.539778125
  9
$TDUCREATE
 40
2450597.498111458
  9
$TDUPDATE
 40
2453013.608547256
  9
$TDUUPDATE
 40
2453013.566880590
  9
$TDINDWG
 40
0.4893034722
  9
$TDUSRTIMER
 40
0.4893034722
  9
$USRTIMER
 70
     1
  9
$ANGBASE
 50
0.0
  9
$ANGDIR
 70
     0
  9
$PDMODE
 70
     0
  9
$PDSIZE
 40
0.0
  9
$PLINEWID
 40
0.0
  9
$SPLFRAME
 70
     0
  9
$SPLINETYPE
 70
     6
  9
$SPLINESEGS
 70
     8
  9
$HANDSEED
  5
27E9
  9
$SURFTAB1
 70
     6
  9
$SURFTAB2
 70
     6
  9
$SURFTYPE
 70
     6
  9
$SURFU
 70
     6
  9
$SURFV
 70
     6
  9
$UCSBASE
  2

  9
$UCSNAME
  2

  9
$UCSORG
 10
0.0
 20
0.0
 30
0.0
  9
$UCSXDIR
 10
1.0
 20
0.0
 30
0.0
  9
$UCSYDIR
 10
0.0
 20
1.0
 30
0.0
  9
$UCSORTHOREF
  2

  9
$UCSORTHOVIEW
 70
     0
  9
$UCSORGTOP
 10
0.0
 20
0.0
 30
0.0
  9
$UCSORGBOTTOM
 10
0.0
 20
0.0
 30
0.0
  9
$UCSORGLEFT
 10
0.0
 20
0.0
 30
0.0
  9
$UCSORGRIGHT
 10
0.0
 20
0.0
 30
0.0
  9
$UCSORGFRONT
 10
0.0
 20
0.0
 30
0.0
  9
$UCSORGBACK
 10
0.0
 20
0.0
 30
0.0
  9
$PUCSBASE
  2

  9
$PUCSNAME
  2

  9
$PUCSORG
 10
0.0
 20
0.0
 30
0.0
  9
$PUCSXDIR
 10
1.0
 20
0.0
 30
0.0
  9
$PUCSYDIR
 10
0.0
 20
1.0
 30
0.0
  9
$PUCSORTHOREF
  2

  9
$PUCSORTHOVIEW
 70
     0
  9
$PUCSORGTOP
 10
0.0
 20
0.0
 30
0.0
  9
$PUCSORGBOTTOM
 10
0.0
 20
0.0
 30
0.0
  9
$PUCSORGLEFT
 10
0.0
 20
0.0
 30
0.0
  9
$PUCSORGRIGHT
 10
0.0
 20
0.0
 30
0.0
  9
$PUCSORGFRONT
 10
0.0
 20
0.0
 30
0.0
  9
$PUCSORGBACK
 10
0.0
 20
0.0
 30
0.0
  9
$USERI1
 70
     0
  9
$USERI2
 70
     0
  9
$USERI3
 70
     0
  9
$USERI4
 70
     0
  9
$USERI5
 70
     0
  9
$USERR1
 40
0.0
  9
$USERR2
 40
0.0
  9
$USERR3
 40
0.0
  9
$USERR4
 40
0.0
  9
$USERR5
 40
0.0
  9
$WORLDVIEW
 70
     1
  9
$SHADEDGE
 70
     3
  9
$SHADEDIF
 70
    70
  9
$TILEMODE
 70
     1
  9
$MAXACTVP
 70
    16
  9
$PINSBASE
 10
0.0
 20
0.0
 30
0.0
  9
$PLIMCHECK
 70
     0
  9
$PEXTMIN
 10
1.000000000000000E+20
 20
1.000000000000000E+20
 30
1.000000000000000E+20
  9
$PEXTMAX
 10
-1.000000000000000E+20
 20
-1.000000000000000E+20
 30
-1.000000000000000E+20
  9
$PLIMMIN
 10
0.0
 20
0.0
  9
$PLIMMAX
 10
12.0
 20
9.0
  9
$UNITMODE
 70
     0
  9
$VISRETAIN
 70
     0
  9
$PLINEGEN
 70
     0
  9
$PSLTSCALE
 70
     1
  9
$TREEDEPTH
 70
  3020
  9
$CMLSTYLE
  2
STANDARD
  9
$CMLJUST
 70
     0
  9
$CMLSCALE
 40
1.0
  9
$PROXYGRAPHICS
 70
     1
  9
$MEASUREMENT
 70
     0
  9
$CELWEIGHT
370
    -1
  9
$ENDCAPS
280
     0
  9
$JOINSTYLE
280
     0
  9
$LWDISPLAY
290
     0
  9
$INSUNITS
 70
     0
  9
$HYPERLINKBASE
  1

  9
$STYLESHEET
  1

  9
$XEDIT
290
     1
  9
$CEPSNTYPE
380
     0
  9
$PSTYLEMODE
290
     1
  9
$FINGERPRINTGUID
  2
{F955C3D8-D52D-11D6-B41D-0050BA12178D}
  9
$VERSIONGUID
  2
{B0A79FB1-3D87-49E9-913F-8925B5C60DDC}
  9
$EXTNAMES
290
     1
  9
$PSVPSCALE
 40
0.0
  9
$OLESTARTUP
290
     0
  0
ENDSEC
  0
SECTION
  2
CLASSES
  0
CLASS
  1
OLE2FRAME
  2
AcDbOle2Frame
  3
AutoCAD 2000
 90
    32768
280
     0
281
     1
  0
CLASS
  1
ACDBDICTIONARYWDFLT
  2
AcDbDictionaryWithDefault
  3
AutoCAD 2000
 90
        0
280
     0
281
     0
  0
CLASS
  1
ACDBPLACEHOLDER
  2
AcDbPlaceHolder
  3
AutoCAD 2000
 90
        0
280
     0
281
     0
  0
CLASS
  1
LAYOUT
  2
AcDbLayout
  3
AutoCAD 2000
 90
        0
280
     0
281
     0
  0
ENDSEC
  0
SECTION
  2
TABLES
  0
TABLE
  2
VPORT
  5
14F3
330
0
100
AcDbSymbolTable
 70
     3
  0
VPORT
  5
27E8
330
14F3
100
AcDbSymbolTableRecord
100
AcDbViewportTableRecord
  2
*Active
 70
     0
 10
0.0
 20
0.0
 11
1.0
 21
1.0
 12
669.0771833600881
 22
46.02506462548154
 13
0.0
 23
0.0
 14
1.0
 24
1.0
 15
0.0
 25
0.0
 16
0.0
 26
0.0
 36
1.0
 17
0.0
 27
0.0
 37
0.0
 40
101.1672491390593
 41
1.887814313346227
 42
50.0
 43
0.0
 44
0.0
 50
0.0
 51
0.0
 71
     0
 72
   100
 73
     1
 74
     0
 75
     0
 76
     0
 77
     0
 78
     0
281
     0
 65
     1
110
0.0
120
0.0
130
0.0
111
1.0
121
0.0
131
0.0
112
0.0
122
1.0
132
0.0
 79
     0
146
0.0
  0
ENDTAB
  0
TABLE
  2
LTYPE
  5
14F0
330
0
100
AcDbSymbolTable
 70
     3
  0
LTYPE
  5
14FD
330
14F0
100
AcDbSymbolTableRecord
100
AcDbLinetypeTableRecord
  2
BYBLOCK
 70
     0
  3

 72
    65
 73
     0
 40
0.0
  0
LTYPE
  5
14FE
330
14F0
100
AcDbSymbolTableRecord
100
AcDbLinetypeTableRecord
  2
BYLAYER
 70
     0
  3

 72
    65
 73
     0
 40
0.0
  0
LTYPE
  5
14FF
330
14F0
100
AcDbSymbolTableRecord
100
AcDbLinetypeTableRecord
  2
CONTINUOUS
 70
     0
  3
Solid line
 72
    65
 73
     0
 40
0.0
  0
LTYPE
  5
1512
330
14F0
100
AcDbSymbolTableRecord
100
AcDbLinetypeTableRecord
  2
AUSGEZOGEN
 70
     0
  3
_______________________________
 72
    65
 73
     0
 40
0.0
  0
LTYPE
  5
2181
330
14F0
100
AcDbSymbolTableRecord
100
AcDbLinetypeTableRecord
  2
MITTE
 70
     0
  3
____ _ ____ _ ____ _ ____ _ ____ _ ____ _ ____ 
 72
    65
 73
     4
 40
2.0
 49
1.25
 74
     0
 49
-0.25
 74
     0
 49
0.25
 74
     0
 49
-0.25
 74
     0
  0
ENDTAB
  0
TABLE
  2
LAYER
  5
14ED
330
0
100
AcDbSymbolTable
 70
     7
  0
LAYER
  5
14FA
330
14ED
100
AcDbSymbolTableRecord
100
AcDbLayerTableRecord
  2
0
 70
     0
 62
     1
  6
CONTINUOUS
370
    -3
390
2775
  0
LAYER
  5
1D3B
330
14ED
100
AcDbSymbolTableRecord
100
AcDbLayerTableRecord
  2
03-KONTUR
 70
     0
 62
     7
  6
AUSGEZOGEN
370
    -3
390
2775
  0
LAYER
  5
1E7B
330
14ED
100
AcDbSymbolTableRecord
100
AcDbLayerTableRecord
  2
02-SCHRIFTKOPF
 70
     0
 62
     1
  6
CONTINUOUS
370
    -3
390
2775
  0
LAYER
  5
20D0
330
14ED
100
AcDbSymbolTableRecord
100
AcDbLayerTableRecord
  2
10-TEXT25
 70
     0
 62
     1
  6
CONTINUOUS
370
    -3
390
2775
  0
LAYER
  5
21A8
330
14ED
100
AcDbSymbolTableRecord
100
AcDbLayerTableRecord
  2
09-BEMAßUNG
 70
     0
 62
     1
  6
CONTINUOUS
370
    -3
390
2775
  0
LAYER
  5
2296
330
14ED
100
AcDbSymbolTableRecord
100
AcDbLayerTableRecord
  2
DEFPOINTS
 70
     0
 62
     1
  6
AUSGEZOGEN
290
     0
370
    -3
390
2775
  0
LAYER
  5
27A3
330
14ED
100
AcDbSymbolTableRecord
100
AcDbLayerTableRecord
  2
09-INDIZEES
 70
     0
 62
     1
  6
CONTINUOUS
370
    -3
390
2775
  0
ENDTAB
  0
TABLE
  2
STYLE
  5
14EE
330
0
100
AcDbSymbolTable
 70
     1
  0
STYLE
  5
14FB
330
14EE
100
AcDbSymbolTableRecord
100
AcDbTextStyleTableRecord
  2
STANDARD
 70
     0
 40
0.0
 41
0.8
 50
0.0
 71
     0
 42
5.0
  3
C:\Programme\AutoCAD LT\romans.shx
  4

  0
ENDTAB
  0
TABLE
  2
VIEW
  5
14F1
330
0
100
AcDbSymbolTable
 70
     0
  0
ENDTAB
  0
TABLE
  2
UCS
  5
14F2
330
0
100
AcDbSymbolTable
 70
     0
  0
ENDTAB
  0
TABLE
  2
APPID
  5
14F4
330
0
100
AcDbSymbolTable
 70
     1
  0
APPID
  5
14FC
330
14F4
100
AcDbSymbolTableRecord
100
AcDbRegAppTableRecord
  2
ACAD
 70
     0
  0
ENDTAB
  0
TABLE
  2
DIMSTYLE
  5
14F5
330
0
100
AcDbSymbolTable
 70
     1
100
AcDbDimStyleTable
 71
     0
  0
DIMSTYLE
105
1516
330
14F5
100
AcDbSymbolTableRecord
100
AcDbDimStyleTableRecord
  2
STANDARD
 70
     0
279
     2
340
14FB
  0
ENDTAB
  0
TABLE
  2
BLOCK_RECORD
  5
14EC
330
0
100
AcDbSymbolTable
 70
     5
  0
BLOCK_RECORD
  5
1503
330
14EC
100
AcDbSymbolTableRecord
100
AcDbBlockTableRecord
  2
*MODEL_SPACE
340
2778
  0
BLOCK_RECORD
  5
1500
330
14EC
100
AcDbSymbolTableRecord
100
AcDbBlockTableRecord
  2
*PAPER_SPACE
340
2779
  0
BLOCK_RECORD
  5
26A7
330
14EC
100
AcDbSymbolTableRecord
100
AcDbBlockTableRecord
  2
A$CE2D2
340
0
  0
BLOCK_RECORD
  5
2755
330
14EC
100
AcDbSymbolTableRecord
100
AcDbBlockTableRecord
  2
A$C91B6
340
0
  0
BLOCK_RECORD
  5
277D
330
14EC
100
AcDbSymbolTableRecord
100
AcDbBlockTableRecord
  2
Adresse
340
0
310
28000000200000002000000001000800000000000004000000000000000000000000000000000000000000004000000080000000FF000000002000004020000080200000FF200000004000004040000080400000FF400000006000004060000080600000FF600000008000004080000080800000FF80000000A0000040A000
310
0080A00000FFA0000000C0000040C0000080C00000FFC0000000FF000040FF000080FF0000FFFF0000000020004000200080002000FF002000002020004020200080202000FF202000004020004040200080402000FF402000006020004060200080602000FF602000008020004080200080802000FF80200000A0200040A0
310
200080A02000FFA0200000C0200040C0200080C02000FFC0200000FF200040FF200080FF2000FFFF2000000040004000400080004000FF004000002040004020400080204000FF204000004040004040400080404000FF404000006040004060400080604000FF604000008040004080400080804000FF80400000A0400040
310
A0400080A04000FFA0400000C0400040C0400080C04000FFC0400000FF400040FF400080FF4000FFFF4000000060004000600080006000FF006000002060004020600080206000FF206000004060004040600080406000FF406000006060004060600080606000FF606000008060004080600080806000FF80600000A06000
310
40A0600080A06000FFA0600000C0600040C0600080C06000FFC0600000FF600040FF600080FF6000FFFF6000000080004000800080008000FF008000002080004020800080208000FF208000004080004040800080408000FF408000006080004060800080608000FF608000008080004080800080808000FF80800000A080
310
0040A0800080A08000FFA0800000C0800040C0800080C08000FFC0800000FF800040FF800080FF8000FFFF80000000A0004000A0008000A000FF00A0000020A0004020A0008020A000FF20A0000040A0004040A0008040A000FF40A0000060A0004060A0008060A000FF60A0000080A0004080A0008080A000FF80A00000A0
310
A00040A0A00080A0A000FFA0A00000C0A00040C0A00080C0A000FFC0A00000FFA00040FFA00080FFA000FFFFA0000000C0004000C0008000C000FF00C0000020C0004020C0008020C000FF20C0000040C0004040C0008040C000FF40C0000060C0004060C0008060C000FF60C0000080C0004080C0008080C000FF80C00000
310
A0C00040A0C00080A0C000FFA0C00000C0C00040C0C00080C0C000FFC0C00000FFC00040FFC00080FFC000FFFFC0000000FF004000FF008000FF00FF00FF000020FF004020FF008020FF00FF20FF000040FF004040FF008040FF00FF40FF000060FF004060FF008060FF00FF60FF000080FF004080FF008080FF00FF80FF00
310
00A0FF0040A0FF0080A0FF00FFA0FF0000C0FF0040C0FF0080C0FF00FFC0FF0000FFFF0040FFFF0080FFFF00FFFFFF00FFFFFFFFFFFFFFFFFFFFFFFFFFFFFFFFFFFFFFFFFFFFFFFFFFFFFFFFFFFFFFFFFFFFFFFFFFFFFFFFFFFFFFFFFFFFFFFFFFFFFFFFFFFFFFFFFFFFFFFFFFFFFFFFFFFFFFFFFFFFFFFFFFFFFFFFFFFFFF
310
FFFFFFFFFFFFFFFFFFFFFFFFFFFFFFFFFFFFFFFFFFFFFFFFFFFFFFFFFFFFFFFFFFFFFFFFFFFFFFFFFFFFFFFFFFFFFFFFFFFFFFFFFFFFFFFFFFFFFFFFFFFFFFFFFFFFFFFFFFFFFFFFFFFFFFFFFFFFFFFFFFFFFFFFFFFFFFFFFFFFFFFFFFFFFFFFFFFFFFFFFFFFFFFFFFFFFFFFFFFFFFFFFFFFFFFFFFFFFFFFFFFFFFFFFFFFFF
310
FFFFFFFFFFFFFFFFFFFFFFFFFFFFFFFFFFFFFFFFFFFFFFFFFFFFFFFFFFFFFFFFFFFFFFFFFFFFFFFFFFFFFFFFFFFFFFFFFFFFFFFFFFFFFFFFFFFFFFFFFFFFFFFFFFFFFFFFFFFFFFFFFFFFFFFFFFFFFFFFFFFFFFFFFFFFFFFFFFFFFFFFE3E3E3E3E3E3E3E3E3E3E3E3E3E3E3E3FFFFFFFFFFFFFFFFFFFFFFFFFFFFFFFFE3E3E3
310
E3E3E3E3E3E3E3E3E3E3E3E3E3FFFFFFFFFFFFFFFFE3E3E3E3E3E3FFFFE3E3E3E3E3E3E3E3E3E3E3E3E3E3E3E3E3E3E3E3E3FFFFFFE3FFE3E3E3E3FFFFE3E3E3E3E3E3E3E3E3E3E3E3E3E3E3E3E3E3E3E3E3FFFFFFE3E3E3E3FFFFFFFFFFE3E3E3E3E3E3E3E3FFE3E3FFE3E3E3FFE3E3E3FFFFFFFFE3E3E3FFFFFFFFFFE3E3
310
E3E3E3E3E3E3E3FFE3E3E3E3E3E3E3E3E3E3FFFFFFFFFFFFFFFFFFFFFFFFFFFFFFFFE3E3E3FFFFFFFFFFFFFFFFFFFFFFFFFFFFFFFFFFE3E3E3FFFFFFFFFFFFE3E3E3E3E3E3E3E3FFE3E3FFE3E3E3FFE3FFFFFFFFFFE3E3E3FFFFFFFFFFFFE3E3E3E3E3E3E3E3E3FFE3E3E3E3E3E3E3E3E3FFFFFFFFFFFFFFFFFFFFFFFFFFFF
310
FFFFFFFFFFFFFFFFFFFFFFFFFFFFFFFFFFFFFFFFFFFFFFE3E3E3E3E3E3E3E3E3E3E3E3E3E3E3FFFFFFFFFFFFFFFFFFFFFFFFFFFFFFFFFFE3FFE3E3E3E3FFE3FFFFFFFFFFFFFFE3FFFFFFFFFFFFFFFFFFFFFFFFFFFFFFE3E3E3E3E3E3E3E3E3E3E3E3E3E3E3E3E3E3E3E3E3E3E3E3E3E3E3E3E3E3FFFFE3E3E3E3E3E3E3FFE3
310
E3E3E3E3E3E3E3E3E3E3E3E3E3E3E3E3E3E3E3E3E3FFFFFFFFFFFFFFFFFFFFFFFFFFFFFFFFFFFFFFFFFFFFFFFFFFFFFFFFFFFFFFFFFFFFFFFFFFFFFFFFFFFFFFFFFFFFFFFFFFFFFFFFFFFFFFFFFFFFFFFFFFFFFFFFFFFFFFFFFFFFFFFFFFFFFFFFFFFFFFFFFFFFFFFFFFFFFFFFFFFFFFFFFFFFFFFFFFFFFFFFFFFFFFFFFFFF
310
FFFFFFFFFFFFFFFFFFFFFFFFFFFFFFFFFFFFFFFFFFFFFFFFFFFFFFFFFFFFFFFFFFFFFFFFFFFFFFFFFFFFFFFFFFFFFFFFFFFFFFFFFFFFFFFFFFFFFFFFFFFFFFFFFFFFFFFFFFFFFFFFFFFFFFFFFFFFFFFFFFFFFFFFFFFFFFFFFFFFFFFFFFFFFFFFFFFFFFFFFFFFFFFFFFFFFFFFFFFFFFFFFFFFFFFFFFFFFFFFFFFFFFFFFFFFFF
310
FFFFFFFFFFFFFFFFFFFFFFFFFFFFFFFFFFFFFFFFFFFFFFFFFFFFFFFFFFFFFFFFFFFFFFFFFFFFFFFFFFFFFFFFFFFFFFFFFFFFFFFFFFFFFFFF
  0
BLOCK_RECORD
  5
2789
330
14EC
100
AcDbSymbolTableRecord
100
AcDbBlockTableRecord
  2
Plattenmaterial
340
0
310
28000000200000002000000001000800000000000004000000000000000000000000000000000000000000004000000080000000FF000000002000004020000080200000FF200000004000004040000080400000FF400000006000004060000080600000FF600000008000004080000080800000FF80000000A0000040A000
310
0080A00000FFA0000000C0000040C0000080C00000FFC0000000FF000040FF000080FF0000FFFF0000000020004000200080002000FF002000002020004020200080202000FF202000004020004040200080402000FF402000006020004060200080602000FF602000008020004080200080802000FF80200000A0200040A0
310
200080A02000FFA0200000C0200040C0200080C02000FFC0200000FF200040FF200080FF2000FFFF2000000040004000400080004000FF004000002040004020400080204000FF204000004040004040400080404000FF404000006040004060400080604000FF604000008040004080400080804000FF80400000A0400040
310
A0400080A04000FFA0400000C0400040C0400080C04000FFC0400000FF400040FF400080FF4000FFFF4000000060004000600080006000FF006000002060004020600080206000FF206000004060004040600080406000FF406000006060004060600080606000FF606000008060004080600080806000FF80600000A06000
310
40A0600080A06000FFA0600000C0600040C0600080C06000FFC0600000FF600040FF600080FF6000FFFF6000000080004000800080008000FF008000002080004020800080208000FF208000004080004040800080408000FF408000006080004060800080608000FF608000008080004080800080808000FF80800000A080
310
0040A0800080A08000FFA0800000C0800040C0800080C08000FFC0800000FF800040FF800080FF8000FFFF80000000A0004000A0008000A000FF00A0000020A0004020A0008020A000FF20A0000040A0004040A0008040A000FF40A0000060A0004060A0008060A000FF60A0000080A0004080A0008080A000FF80A00000A0
310
A00040A0A00080A0A000FFA0A00000C0A00040C0A00080C0A000FFC0A00000FFA00040FFA00080FFA000FFFFA0000000C0004000C0008000C000FF00C0000020C0004020C0008020C000FF20C0000040C0004040C0008040C000FF40C0000060C0004060C0008060C000FF60C0000080C0004080C0008080C000FF80C00000
310
A0C00040A0C00080A0C000FFA0C00000C0C00040C0C00080C0C000FFC0C00000FFC00040FFC00080FFC000FFFFC0000000FF004000FF008000FF00FF00FF000020FF004020FF008020FF00FF20FF000040FF004040FF008040FF00FF40FF000060FF004060FF008060FF00FF60FF000080FF004080FF008080FF00FF80FF00
310
00A0FF0040A0FF0080A0FF00FFA0FF0000C0FF0040C0FF0080C0FF00FFC0FF0000FFFF0040FFFF0080FFFF00FFFFFF00FFFFFFFFFFFFFFFFFFFFFFFFFFFFFFFFFFFFFFFFFFFFFFFFFFFFFFFFFFFFFFFFFFFFFFFFFFFFFFFFFFFFFFFFFFFFFFFFFFFFFFFFFFFFFFFFFFFFFFFFFFFFFFFFFFFFFFFFFFFFFFFFFFFFFFFFFFFFFF
310
FFFFFFFFFFFFFFFFFFFFFFFFFFFFFFFFFFFFFFFFFFFFFFFFFFFFFFFFFFFFFFFFFFFFFFFFFFFFFFFFFFFFFFFFFFFFFFFFFFFFFFFFFFFFFFFFFFFFFFFFFFFFFFFFFFFFFFFFFFFFFFFFFFFFFFFFFFFFFFFFFFFFFFFFFFFFFFFFFFFFFFFFFFFFFFFFFFFFFFFFFFFFFFFFFFFFFFFFFFFFFFFFFFFFFFFFFFFFFFFFFFFFFFFFFFFFFF
310
FFFFFFFFFFFFFFFFFFFFFFFFFFFFFFFFFFFFFFFFFFFFFFFFFFFFFFFFFFFFFFFFFFFFFFFFFFFFFFFFFFFFFFFFFFFFFFFFFFFFFFFFFFFFFFFFFFFFFFFFFFFFFFFFFFFFFFFFFFFFFFFFFFFFFFFFFFFFFFFFFFFFFFE0E0E0E0E0FFFFFFFFFFFFFFFFE0E0E0E0FFFFFFFFFFFFFFFFFFFFFFFFFFFFFFE0E0E0E0E0E0E0FFFFFFFFFF
310
FFE0E0E0E0FFFFFFFFFFFFFFFFFFFFFFFFFFFFFFE0E0E0E0E0E0E0FFFFFFFFFFFFE0E0E0E0E0FFFFFFFFFFFFFFFFFFFFFFFFFFFFFFFFFFFFFFFFFFFFFFFFFFFFFFE0E0E0E0E0E0E0E0E0E0E0E0E0E0E0FFFFFFFFFFFFFFFFFFFFFFFFFFFFFFFFFFFFFFE0FFE0E0E0E0E0E0E0E0E0E0E0E0E0FFFFE0E0E0E0E0E0E0E0E0E0E0
310
E0E0E0E0E0E0E0E0E0E0E0E0E0E0E0E0E0E0E0FFFFE0E0E0E0E0E0E0E0E0E0E0E0E0E0E0E0E0E0E0E0E0E0E0E0E0E0E0E0E0E0FFFFE0E0E0E0E0E0FFFFFFFFFFFFFFE0E0FFFFFFFFFFFFFFFFFFFFFFFFFFFFFFFFFFE0E0E0E0E0E0FFFFFFFFFFFFFFE0E0E0FFFFFFFFFFFFFFFFFFFFFFFFFFFFFFFFE0E0E0E0E0E0E0FFFFFF
310
FFFFFFE0E0E0E0E0FFFFFFFFFFFFFFFFFFFFFFFFFFFFFFFFFFFFFFFFFFFFFFFFFFFFFFE0E0E0E0E0E0E0E0E0E0E0E0E0E0FFFFFFFFFFFFFFFFFFFFFFFFFFFFFFFFFFFFE0FFFFE0E0E0E0E0E0E0E0E0E0E0E0E0FFFFFFE0E0E0E0E0E0E0E0E0E0E0FFFFE0E0E0E0E0E0E0E0E0E0E0E0E0E0E0E0FFFFFFE0E0E0E0E0E0E0E0E0
310
E0E0FFFFE0E0E0E0E0E0E0E0E0E0E0E0E0E0E0E0FFFFFFFFFFFFFFFFFFFFFFFFFFFFFFFFFFFFFFFFFFFFFFFFFFFFFFFFFFFFFFFFFFFFFFFFFFFFFFFFFFFFFFFFFFFFFFFFFFFFFFFFFFFFFFFFFFFFFFFFFFFFFFFFFFFFFFFFFFFFFFFFFFFFFFFFFFFFFFFFFFFFFFFFFFFFFFFFFFFFFFFFFFFFFFFFFFFFFFFFFFFFFFFFFFFFFF
310
FFFFFFFFFFFFFFFFFFFFFFFFFFFFFFFFFFFFFFFFFFFFFFFFFFFFFFFFFFFFFFFFFFFFFFFFFFFFFFFFFFFFFFFFFFFFFFFFFFFFFFFFFFFFFFFFFFFFFFFFFFFFFFFFFFFFFFFFFFFFFFFFFFFFFFFFFFFFFFFFFFFFFFFFFFFFFFFFFFFFFFFFFFFFFFFFFFFFFFFFFFFFFFFFFFFFFFFFFFFFFFFFFFFFFFFFFFFFFFFFFFFFFFFFFFFFFF
310
FFFFFFFFFFFFFFFFFFFFFFFFFFFFFFFFFFFFFFFFFFFFFFFFFFFFFFFFFFFFFFFFFFFFFFFFFFFFFFFFFFFFFFFFFFFFFFFFFFFFFFFFFFFFFFFF
  0
BLOCK_RECORD
  5
279C
330
14EC
100
AcDbSymbolTableRecord
100
AcDbBlockTableRecord
  2
A
340
0
  0
ENDTAB
  0
ENDSEC
  0
SECTION
  2
BLOCKS
  0
BLOCK
  5
1521
330
1503
100
AcDbEntity
  8
0
 62
     6
100
AcDbBlockBegin
  2
*MODEL_SPACE
 70
     0
 10
0.0
 20
0.0
 30
0.0
  3
*MODEL_SPACE
  1

  0
ENDBLK
  5
1522
330
1503
100
AcDbEntity
  8
0
 62
     6
100
AcDbBlockEnd
  0
BLOCK
  5
151F
330
1500
100
AcDbEntity
 67
     1
  8
0
 62
     6
100
AcDbBlockBegin
  2
*PAPER_SPACE
 70
     0
 10
0.0
 20
0.0
 30
0.0
  3
*PAPER_SPACE
  1

  0
ENDBLK
  5
1520
330
1500
100
AcDbEntity
 67
     1
  8
0
 62
     6
100
AcDbBlockEnd
  0
BLOCK
  5
26E9
330
26A7
100
AcDbEntity
  8
0
100
AcDbBlockBegin
  2
A$CE2D2
 70
     0
 10
0.0
 20
0.0
 30
0.0
  3
A$CE2D2
  1

  0
LINE
  5
26A8
330
26A7
100
AcDbEntity
  8
09-BEMAßUNG
 62
     6
 48
10.0
100
AcDbLine
 10
210.730158224864
 20
155.1263572104338
 30
0.0
 11
210.7301582248638
 21
170.7224206664986
 31
0.0
  0
LWPOLYLINE
  5
26A9
330
26A7
100
AcDbEntity
  8
09-BEMAßUNG
 48
10.0
100
AcDbPolyline
 90
        4
 70
     1
 43
0.0
 10
207.7626923827145
 20
149.4695029609414
 10
213.419546632207
 20
149.4695029609414
 10
213.419546632207
 20
155.1263572104338
 10
207.7626923827145
 20
155.1263572104338
  0
TEXT
  5
26AF
330
26A7
100
AcDbEntity
  8
09-BEMAßUNG
 48
10.0
100
AcDbText
 10
209.5836976609063
 20
150.6019768516086
 30
0.0
 40
3.5
  1
A
 41
0.8
 72
     4
 11
210.7836976609063
 21
152.3519768516086
 31
0.0
100
AcDbText
  0
SOLID
  5
26B0
330
26A7
100
AcDbEntity
  8
09-BEMAßUNG
100
AcDbTrace
 10
210.7332690963033
 20
167.7224206664986
 30
0.0
 11
212.4653199038722
 21
170.7224206664986
 31
0.0
 12
209.0012182887343
 22
170.7224206664986
 32
0.0
 13
209.0012182887343
 23
170.7224206664986
 33
0.0
  0
LWPOLYLINE
  5
26B1
330
26A7
100
AcDbEntity
  8
09-BEMAßUNG
 62
     6
 48
10.0
100
AcDbPolyline
 90
        3
 70
     1
 43
0.0
 10
210.7332690963033
 20
167.7224206664986
 10
212.4653199038722
 20
170.7224206664986
 10
209.0012182887343
 20
170.7224206664986
1001
ACAD
1000
ASC_BOUNDS
1002
{
1070
    19
1002
}
  0
LINE
  5
26B6
330
26A7
100
AcDbEntity
  8
09-BEMAßUNG
  6
ByBlock
 62
     6
100
AcDbLine
 10
210.7362761891871
 20
170.7224206664986
 30
0.0
 11
210.7362761891871
 21
168.6778575108425
 31
0.0
  0
TEXT
  5
26B7
330
26A7
100
AcDbEntity
  8
10-TEXT25
 62
     1
 48
1.5
100
AcDbText
 10
0.5996198956449917
 20
58.88710506254452
 30
-7.02
 40
3.0
  1
Abnahmekontrolle/acceptance inspection
 41
0.8
 11
0.5996198956449917
 21
57.88710506254452
 31
-7.02
100
AcDbText
 73
     1
  0
TEXT
  5
26B8
330
26A7
100
AcDbEntity
  8
10-TEXT25
 62
     1
 48
1.5
100
AcDbText
 10
0.2845213429568503
 20
63.73567344999279
 30
-7.02
 40
3.0
  1
Fertigungsüberwachung/manufacturing supervision
 41
0.8
 11
0.2845213429568503
 21
62.73567344999278
 31
-7.02
100
AcDbText
 73
     1
  0
TEXT
  5
26B9
330
26A7
100
AcDbEntity
  8
10-TEXT25
 62
     1
 48
1.5
100
AcDbText
 10
0.2978269871136945
 20
68.71735141254092
 30
-7.02
 40
3.0
  1
Fertigungsangaben/manufacturing instructions
 41
0.8
 11
0.2978269871136945
 21
67.71735141254092
 31
-7.02
100
AcDbText
 73
     1
  0
TEXT
  5
26BA
330
26A7
100
AcDbEntity
  8
10-TEXT25
 62
     1
 48
1.5
100
AcDbText
 10
95.67415379714407
 20
63.69856619743521
 30
-7.02
 40
3.0
  1
Ü 98-6
 41
0.8
 11
95.67415379714407
 21
62.69856619743521
 31
-7.02
100
AcDbText
 73
     1
  0
TEXT
  5
26BB
330
26A7
100
AcDbEntity
  8
10-TEXT25
 62
     1
 48
1.5
100
AcDbText
 10
95.70291894607043
 20
58.78312263385365
 30
-7.02
 40
3.0
  1
K 98-6
 41
0.8
 11
95.70291894607043
 21
57.78312263385365
 31
-7.02
100
AcDbText
 73
     1
  0
TEXT
  5
26BC
330
26A7
100
AcDbEntity
  8
10-TEXT25
 62
     1
 48
1.5
100
AcDbText
 10
96.04451183737479
 20
68.67633384092759
 30
-7.02
 40
3.0
  1
A 98-6
 41
0.8
 11
96.04451183737479
 21
67.67633384092758
 31
-7.02
100
AcDbText
 73
     1
  0
TEXT
  5
26BD
330
26A7
100
AcDbEntity
  8
10-TEXT25
 48
10.0
100
AcDbText
 10
111.7678315700231
 20
41.80452108862809
 30
0.0
 40
2.5
  1
Herstellerzeichen / manufacturer mark
 41
0.75
100
AcDbText
  0
CIRCLE
  5
26BE
330
26A7
100
AcDbEntity
  8
10-TEXT25
 48
1.5
100
AcDbCircle
 10
106.941021398586
 20
43.45977438926647
 30
0.0
 40
2.720629648604097
  0
TEXT
  5
26BF
330
26A7
100
AcDbEntity
  8
10-TEXT25
 48
10.0
100
AcDbText
 10
105.9276600528307
 20
42.28344882547761
 30
0.0
 40
2.5
  1
1
 41
0.8
100
AcDbText
  0
TEXT
  5
26C0
330
26A7
100
AcDbEntity
  8
10-TEXT25
 48
10.0
100
AcDbText
 10
43.79917124888561
 20
36.29380486240289
 30
0.0
 40
2.5
  1
entgratet
 41
0.8
 11
43.79917124888561
 21
35.46047152906956
 31
0.0
100
AcDbText
 73
     1
  0
TEXT
  5
26C1
330
26A7
100
AcDbEntity
  8
10-TEXT25
 48
10.0
100
AcDbText
 10
43.57291760924522
 20
40.81844489404817
 30
0.0
 40
2.5
  1
bzw. nach Zeichnungsangabe
 41
0.8
 11
43.57291760924522
 21
39.98511156071484
 31
0.0
100
AcDbText
 73
     1
  0
TEXT
  5
26C2
330
26A7
100
AcDbEntity
  8
10-TEXT25
 48
10.0
100
AcDbText
 10
43.77448795079579
 20
13.36179778900365
 30
0.0
 40
2.5
  1
and/or acc. to drawing data
 41
0.8
 11
43.77448795079579
 21
12.52846445567033
 31
0.0
100
AcDbText
 73
     1
  0
TEXT
  5
26C3
330
26A7
100
AcDbEntity
  8
10-TEXT25
 48
10.0
100
AcDbText
 10
43.77448795079579
 20
17.3500909971746
 30
0.0
 40
2.5
  1
acc. to DIN ISO 2768-c
 41
0.8
 11
43.77448795079579
 21
16.51675766384127
 31
0.0
100
AcDbText
 73
     1
  0
TEXT
  5
26C4
330
26A7
100
AcDbEntity
  8
10-TEXT25
 48
10.0
100
AcDbText
 10
43.77448795079579
 20
21.27298521589675
 30
0.0
 40
2.5
  1
acc. to DIN ISO 1101
 41
0.8
 11
43.77448795079579
 21
20.43965188256342
 31
0.0
100
AcDbText
 73
     1
  0
TEXT
  5
26C5
330
26A7
100
AcDbEntity
  8
10-TEXT25
 48
10.0
100
AcDbText
 10
0.3010742511957005
 20
21.27298521589675
 30
0.0
 40
2.5
  1
shape and positioning tol.:
 41
0.8
 11
0.3010742511957005
 21
20.43965188256342
 31
0.0
100
AcDbText
 73
     1
  0
TEXT
  5
26C6
330
26A7
100
AcDbEntity
  8
10-TEXT25
 48
10.0
100
AcDbText
 10
0.0379986473488998
 20
3.523608509951429
 30
0.0
 40
2.5
  1
surface:
 41
0.8
 11
0.0379986473488998
 21
2.690275176618087
 31
0.0
100
AcDbText
 73
     1
  0
TEXT
  5
26C7
330
26A7
100
AcDbEntity
  8
10-TEXT25
 48
10.0
100
AcDbText
 10
0.102186736519684
 20
7.747289203049646
 30
0.0
 40
2.5
  1
outer edges:
 41
0.8
 11
0.102186736519684
 21
6.913955869716318
 31
0.0
100
AcDbText
 73
     1
  0
TEXT
  5
26C8
330
26A7
100
AcDbEntity
  8
10-TEXT25
 48
10.0
100
AcDbText
 10
0.3010742511957005
 20
17.91793201891293
 30
0.0
 40
2.5
  1
outer shape:
 41
0.8
 11
0.3010742511957005
 21
17.0845986855796
 31
0.0
100
AcDbText
 73
     1
  0
TEXT
  5
26C9
330
26A7
100
AcDbEntity
  8
10-TEXT25
 48
10.0
100
AcDbText
 10
44.00074159043618
 20
3.523608509951429
 30
0.0
 40
2.5
  1
rough
 41
0.8
 11
44.00074159043618
 21
2.690275176618087
 31
0.0
100
AcDbText
 73
     1
  0
TEXT
  5
26CA
330
26A7
100
AcDbEntity
  8
10-TEXT25
 48
10.0
100
AcDbText
 10
44.00074159043618
 20
7.95224069353928
 30
0.0
 40
2.5
  1
deburred
 41
0.8
 11
44.00074159043618
 21
7.118907360205952
 31
0.0
100
AcDbText
 73
     1
  0
TEXT
  5
26CB
330
26A7
100
AcDbEntity
  8
10-TEXT25
 48
10.0
100
AcDbText
 10
0.1260549543248999
 20
31.99501387303608
 30
0.0
 40
2.5
  1
Oberfläche:
 41
0.8
 11
0.1260549543248999
 21
31.16168053970275
 31
0.0
100
AcDbText
 73
     1
  0
TEXT
  5
26CC
330
26A7
100
AcDbEntity
  8
10-TEXT25
 48
10.0
100
AcDbText
 10
0.1902430434956841
 20
36.08885337191326
 30
0.0
 40
2.5
  1
Außenkanten:
 41
0.8
 11
0.1902430434956841
 21
35.25552003857993
 31
0.0
100
AcDbText
 73
     1
  0
TEXT
  5
26CD
330
26A7
100
AcDbEntity
  8
10-TEXT25
 48
10.0
100
AcDbText
 10
43.79917124888561
 20
31.99501387303608
 30
0.0
 40
2.5
  1
roh
 41
0.8
 11
43.79917124888561
 21
31.16168053970275
 31
0.0
100
AcDbText
 73
     1
  0
TEXT
  5
26CE
330
26A7
100
AcDbEntity
  8
10-TEXT25
100
AcDbText
 10
106.5364824263617
 20
7.930697259871365
 30
0.0
 40
2.5
  1
Rauhigkeitsgrad
 41
0.8449931413058884
 72
     5
 11
130.9809268712821
 21
7.930697259871365
 31
0.0
100
AcDbText
  0
LINE
  5
26CF
330
26A7
100
AcDbEntity
  8
10-TEXT25
100
AcDbLine
 10
179.8358856264396
 20
0.4516990654046538
 30
0.0
 11
104.3021743338815
 21
0.4516990654046538
 31
0.0
  0
TEXT
  5
26D0
330
26A7
100
AcDbEntity
  8
10-TEXT25
100
AcDbText
 10
106.5364824263617
 20
2.930697259871379
 30
0.0
 40
2.5
  1
degree of roughness
 41
0.7800995025028297
 72
     5
 11
137.6475935380817
 21
2.930697259871379
 31
0.0
100
AcDbText
  0
LINE
  5
26D1
330
26A7
100
AcDbEntity
  8
10-TEXT25
100
AcDbLine
 10
179.8358856264396
 20
12.45169906540465
 30
0.0
 11
104.3021743338815
 21
12.45169906540465
 31
0.0
  0
TEXT
  5
26D2
330
26A7
100
AcDbEntity
  8
10-TEXT25
100
AcDbText
 10
106.5364824263617
 20
15.78688277327992
 30
0.0
 40
2.5
  1
value of roughness
 41
0.7978494623806343
 72
     5
 11
135.9809268713613
 21
15.78688277327992
 31
0.0
100
AcDbText
  0
TEXT
  5
26D3
330
26A7
100
AcDbEntity
  8
10-TEXT25
100
AcDbText
 10
106.5858387988415
 20
20.64878084093714
 30
0.0
 40
2.5
  1
Rauhigkeitswert
 41
0.8458333333492163
 72
     5
 11
130.752505465962
 21
20.64878084093714
 31
0.0
100
AcDbText
  0
LINE
  5
26D4
330
26A7
100
AcDbEntity
  8
10-TEXT25
100
AcDbLine
 10
179.8358856264396
 20
26.45169906540473
 30
0.0
 11
104.3021743338815
 21
26.45169906540473
 31
0.0
  0
TEXT
  5
26D5
330
26A7
100
AcDbEntity
  8
10-TEXT25
 48
10.0
100
AcDbText
 10
111.7678315700231
 20
34.71683232839686
 30
0.0
 40
2.5
  1
Charge Nr./charge no.
 41
0.75
100
AcDbText
  0
LINE
  5
26D6
330
26A7
100
AcDbEntity
  8
10-TEXT25
100
AcDbLine
 10
104.3021743338815
 20
0.4516990654046538
 30
0.0
 11
104.3021743338815
 21
26.45169906540473
 31
0.0
  0
TEXT
  5
26D7
330
26A7
100
AcDbEntity
  8
10-TEXT25
 48
10.0
100
AcDbText
 10
106.1262246617186
 20
34.71683232839686
 30
0.0
 40
2.5
  1
2
 41
0.8
100
AcDbText
  0
CIRCLE
  5
26D8
330
26A7
100
AcDbEntity
  8
10-TEXT25
 48
1.5
100
AcDbCircle
 10
106.941021398586
 20
35.89315789218571
 30
0.0
 40
2.720629648604097
  0
LINE
  5
26D9
330
26A7
100
AcDbEntity
  8
10-TEXT25
100
AcDbLine
 10
179.8358856264396
 20
0.4516990654046538
 30
0.0
 11
179.8358856264396
 21
26.55289055509872
 31
0.0
  0
LINE
  5
26DA
330
26A7
100
AcDbEntity
  8
10-TEXT25
100
AcDbLine
 10
162.9502713996753
 20
14.31910165092593
 30
0.0
 11
167.9099468271549
 21
23.75758653892474
 31
0.0
  0
ARC
  5
26DB
330
26A7
100
AcDbEntity
  8
0
  6
Continuous
 62
     1
100
AcDbCircle
 10
156.3549691712019
 20
19.58380684358246
 30
0.0
 40
13.99410108886195
100
AcDbArc
 50
333.4532480311606
 51
16.79995950044367
  0
ARC
  5
26DC
330
26A7
100
AcDbEntity
  8
0
  6
Continuous
 62
     1
100
AcDbCircle
 10
170.5931558106724
 20
19.58380684358246
 30
0.0
 40
13.99410108886195
100
AcDbArc
 50
163.2000404995563
 51
206.5467519688511
  0
LINE
  5
26DD
330
26A7
100
AcDbEntity
  8
10-TEXT25
100
AcDbLine
 10
147.9979213885155
 20
14.42139114572118
 30
0.0
 11
152.9575968159952
 21
23.85987603372018
 31
0.0
  0
LINE
  5
26DE
330
26A7
100
AcDbEntity
  8
10-TEXT25
100
AcDbLine
 10
139.0379826441217
 20
0.4516990654046538
 30
0.0
 11
139.0379826441217
 21
26.45169906540473
 31
0.0
  0
TEXT
  5
26DF
330
26A7
100
AcDbEntity
  8
10-TEXT25
100
AcDbText
 10
144.843622522667
 20
4.207453107484326
 30
0.0
 40
3.5
  1
( N 10 )
 41
0.5324384787382517
 72
     5
 11
158.0658447446669
 21
4.207453107484326
 31
0.0
100
AcDbText
  0
LINE
  5
26E0
330
26A7
100
AcDbEntity
  8
10-TEXT25
100
AcDbLine
 10
145.8042187956357
 20
18.09743262841539
 30
0.0
 11
147.9979213885155
 21
14.42139114572118
 31
0.0
  0
CIRCLE
  5
26E1
330
26A7
100
AcDbEntity
  8
0
  6
Continuous
 62
     1
100
AcDbCircle
 10
162.8221663248325
 20
17.26939147224413
 30
0.0
 40
1.351154414805705
  0
LINE
  5
26E2
330
26A7
100
AcDbEntity
  8
10-TEXT25
100
AcDbLine
 10
160.7565688067547
 20
17.9951431336203
 30
0.0
 11
162.9502713996753
 21
14.31910165092593
 31
0.0
  0
TEXT
  5
26E3
330
26A7
100
AcDbEntity
  8
10-TEXT25
 48
10.0
100
AcDbText
 10
43.57291760924522
 20
49.01311498141364
 30
0.0
 40
2.5
  1
nach DIN ISO 1101
 41
0.8
 11
43.57291760924522
 21
48.17978164808031
 31
0.0
100
AcDbText
 73
     1
  0
TEXT
  5
26E4
330
26A7
100
AcDbEntity
  8
10-TEXT25
 48
10.0
100
AcDbText
 10
43.57291760924522
 20
44.97291698589298
 30
0.0
 40
2.5
  1
nach DIN ISO 2768-c
 41
0.8
 11
43.57291760924522
 21
44.13958365255965
 31
0.0
100
AcDbText
 73
     1
  0
TEXT
  5
26E5
330
26A7
100
AcDbEntity
  8
10-TEXT25
 48
10.0
100
AcDbText
 10
0.3891305581717006
 20
49.01311498141364
 30
0.0
 40
2.5
  1
Form-und Lagetoleranzen:
 41
0.8
 11
0.3891305581717006
 21
48.17978164808031
 31
0.0
100
AcDbText
 73
     1
  0
TEXT
  5
26E6
330
26A7
100
AcDbEntity
  8
10-TEXT25
 48
10.0
100
AcDbText
 10
0.3891305581717006
 20
44.97291698589298
 30
0.0
 40
2.5
  1
Außenform:
 41
0.8
 11
0.3891305581717006
 21
44.13958365255965
 31
0.0
100
AcDbText
 73
     1
  0
TEXT
  5
26E7
330
26A7
100
AcDbEntity
  8
10-TEXT25
 48
10.0
100
AcDbText
 10
111.7678315700231
 20
49.10816325918185
 30
0.0
 40
2.5
  1
Herstellerzeichen SAH / manufacturer mark SAH
 41
0.75
100
AcDbText
  0
TEXT
  5
26E8
330
26A7
100
AcDbEntity
  8
02-SCHRIFTKOPF
 62
     7
 48
10.0
100
AcDbText
 10
105.9276600528307
 20
49.10816325918185
 30
0.0
 40
3.5
  1
A
 41
0.8
100
AcDbText
  0
ENDBLK
  5
26EA
330
26A7
100
AcDbEntity
  8
0
100
AcDbBlockEnd
  0
BLOCK
  5
2762
330
2755
100
AcDbEntity
  8
0
100
AcDbBlockBegin
  2
A$C91B6
 70
     0
 10
0.0
 20
0.0
 30
0.0
  3
A$C91B6
  1

  0
TEXT
  5
2756
330
2755
100
AcDbEntity
  8
09-BEMAßUNG
 48
10.0
100
AcDbText
 10
1.838730542486132
 20
6.669661688680179
 30
0.0
 40
3.0
  1
y
 41
0.8
 72
     4
 11
2.695873399629022
 21
7.169661688680179
 31
0.0
100
AcDbText
  0
LINE
  5
2757
330
2755
100
AcDbEntity
  8
09-BEMAßUNG
100
AcDbLine
 10
2.630347164155296
 20
1.273318748491959
 30
0.0
 11
7.590022591634919
 21
10.71180363649077
 31
0.0
  0
LINE
  5
2758
330
2755
100
AcDbEntity
  8
09-BEMAßUNG
100
AcDbLine
 10
15.18313163531263
 20
1.273318748491959
 30
0.0
 11
20.14280706279226
 21
10.71180363649077
 31
0.0
  0
LINE
  5
2759
330
2755
100
AcDbEntity
  8
10-TEXT25
100
AcDbLine
 10
27.23289405719322
 20
1.215984597628775
 30
0.0
 11
32.19256948467284
 21
10.65446948562758
 31
0.0
  0
ARC
  5
275A
330
2755
100
AcDbEntity
  8
0
  6
Continuous
 62
     1
100
AcDbCircle
 10
36.89405002405931
 20
6.48068979028531
 30
0.0
 40
13.99410108886195
100
AcDbArc
 50
163.2000404995563
 51
206.5467519688511
  0
ARC
  5
275B
330
2755
100
AcDbEntity
  8
0
  6
Continuous
 62
     1
100
AcDbCircle
 10
19.71255055760059
 20
6.48068979028531
 30
0.0
 40
13.99410108886195
100
AcDbArc
 50
333.4532480311606
 51
16.79995950044367
  0
LINE
  5
275C
330
2755
100
AcDbEntity
  8
09-BEMAßUNG
100
AcDbLine
 10
0.4366445712347513
 20
4.949360231186318
 30
0.0
 11
2.630347164155296
 21
1.273318748491959
 31
0.0
  0
LINE
  5
275D
330
2755
100
AcDbEntity
  8
09-BEMAßUNG
100
AcDbLine
 10
12.98942904239209
 20
4.949360231186318
 30
0.0
 11
15.18313163531263
 21
1.273318748491959
 31
0.0
  0
TEXT
  5
275E
330
2755
100
AcDbEntity
  8
10-TEXT25
 48
10.0
100
AcDbText
 10
9.986825488727845
 20
5.740485363087543
 30
0.0
 40
2.5
  1
12,5
 41
0.75
100
AcDbText
  0
TEXT
  5
275F
330
2755
100
AcDbEntity
  8
10-TEXT25
 48
10.0
100
AcDbText
 10
6.970449343264135
 20
3.502264645340517
 30
0.0
 40
2.5
  1
=
 41
0.75
100
AcDbText
  0
LINE
  5
2760
330
2755
100
AcDbEntity
  8
10-TEXT25
100
AcDbLine
 10
25.03919146427267
 20
4.892026080323148
 30
0.0
 11
27.23289405719322
 21
1.215984597628775
 31
0.0
  0
CIRCLE
  5
2761
330
2755
100
AcDbEntity
  8
0
  6
Continuous
 62
     1
100
AcDbCircle
 10
27.10478898235044
 20
4.166274418946983
 30
0.0
 40
1.351154414805705
  0
ENDBLK
  5
2763
330
2755
100
AcDbEntity
  8
0
100
AcDbBlockEnd
  0
BLOCK
  5
2787
330
277D
100
AcDbEntity
  8
0
100
AcDbBlockBegin
  2
Adresse
 70
     0
 10
0.0
 20
0.0
 30
0.0
  3
Adresse
  1

  0
TEXT
  5
277E
330
277D
100
AcDbEntity
  8
02-SCHRIFTKOPF
 62
     6
 48
1.5
100
AcDbText
 10
822.5884360574356
 20
-74.21208536970673
 30
0.0
 40
1.8
  1
e-mail
100
AcDbText
  0
TEXT
  5
277F
330
277D
100
AcDbEntity
  8
02-SCHRIFTKOPF
 62
     6
 48
1.5
100
AcDbText
 10
822.5565317960089
 20
-70.4679584817205
 30
0.0
 40
1.8
  1
Fax.
100
AcDbText
  0
TEXT
  5
2780
330
277D
100
AcDbEntity
  8
02-SCHRIFTKOPF
 62
     6
 48
1.5
100
AcDbText
 10
822.5884360574356
 20
-65.89663912540763
 30
0.0
 40
1.8
  1
Tel.
100
AcDbText
  0
TEXT
  5
2781
330
277D
100
AcDbEntity
  8
02-SCHRIFTKOPF
 62
     6
 48
1.5
100
AcDbText
 10
822.5965191984011
 20
-58.19448572491032
 30
0.0
 40
2.0
  1
Stahlwerk Annahütte Systemtechnik GmbH
 41
0.7
100
AcDbText
  0
TEXT
  5
2782
330
277D
100
AcDbEntity
  8
02-SCHRIFTKOPF
 62
     6
 48
1.5
100
AcDbText
 10
822.7422992237942
 20
-61.74317405985309
 30
0.0
 40
1.8
  1
D-83404 Hammerau
 41
0.8
100
AcDbText
  0
TEXT
  5
2783
330
277D
100
AcDbEntity
  8
02-SCHRIFTKOPF
 62
     6
 48
1.5
100
AcDbText
 10
836.2715555495903
 20
-65.89663912540763
 30
0.0
 40
1.8
  1
+49/(0)86 54-487-0
 41
0.9
100
AcDbText
  0
TEXT
  5
2784
330
277D
100
AcDbEntity
  8
02-SCHRIFTKOPF
 62
     6
 48
1.5
100
AcDbText
 10
836.2777794449742
 20
-70.31381295013133
 30
0.0
 40
1.8
  1
+49/(0)86 54-487-960
 41
0.9
100
AcDbText
  0
TEXT
  5
2785
330
277D
100
AcDbEntity
  8
02-SCHRIFTKOPF
 62
     6
 48
1.5
100
AcDbText
 10
835.4801734066787
 20
-74.21208536970673
 30
0.0
 40
1.8
  1
stahlwerk@annahuette.com
 41
0.9
100
AcDbText
  0
TEXT
  5
2786
330
277D
100
AcDbEntity
  8
02-SCHRIFTKOPF
 62
     6
 48
1.5
100
AcDbText
 10
835.4801734066787
 20
-77.43336069685844
 30
0.0
 40
1.8
  1
www.annahuette.com
 41
0.9
100
AcDbText
  0
ENDBLK
  5
2788
330
277D
100
AcDbEntity
  8
0
100
AcDbBlockEnd
  0
BLOCK
  5
279A
330
2789
100
AcDbEntity
  8
0
100
AcDbBlockBegin
  2
Plattenmaterial
 70
     0
 10
0.0
 20
0.0
 30
0.0
  3
Plattenmaterial
  1

  0
TEXT
  5
278A
330
2789
100
AcDbEntity
  8
10-TEXT25
 48
10.0
100
AcDbText
 10
591.7413833510119
 20
-44.08579375339841
 30
0.0
 40
2.5
  1
and/or acc. to drawing data
 41
0.8
 11
591.7413833510119
 21
-44.91912708673175
 31
0.0
100
AcDbText
 73
     1
  0
TEXT
  5
278B
330
2789
100
AcDbEntity
  8
10-TEXT25
 48
10.0
100
AcDbText
 10
591.7413819156812
 20
-36.15759154128543
 30
0.0
 40
2.5
  1
acc. to DIN ISO 2768-1 class c
 41
0.8
 11
591.7413819156812
 21
-36.99092487461877
 31
0.0
100
AcDbText
 73
     1
  0
TEXT
  5
278C
330
2789
100
AcDbEntity
  8
10-TEXT25
 48
10.0
100
AcDbText
 10
604.8755221467466
 20
-40.07355664568283
 30
0.0
 40
2.5
  1
DIN ISO 2768-2 class L
 41
0.8
 11
604.8755221467466
 21
-40.90688997901617
 31
0.0
100
AcDbText
 73
     1
  0
TEXT
  5
278D
330
2789
100
AcDbEntity
  8
10-TEXT25
 48
10.0
100
AcDbText
 10
600.693957050139
 20
-16.32373023635751
 30
0.0
 40
2.5
  1
DIN ISO 2768-2 Klasse L
 41
0.8
 11
600.693957050139
 21
-17.15706356969084
 31
0.0
100
AcDbText
 73
     1
  0
TEXT
  5
278E
330
2789
100
AcDbEntity
  8
10-TEXT25
 48
10.0
100
AcDbText
 10
591.6110111470263
 20
-12.25509558632212
 30
0.0
 40
2.5
  1
nach DIN ISO 2768-1 Klasse c
 41
0.8
 11
591.6110111470263
 21
-13.08842891965545
 31
0.0
100
AcDbText
 73
     1
  0
TEXT
  5
278F
330
2789
100
AcDbEntity
  8
10-TEXT25
 48
10.0
100
AcDbText
 10
591.6110111470263
 20
-20.28766021461366
 30
0.0
 40
2.5
  1
bzw. nach Zeichnungsangabe
 41
0.8
 11
591.6110111470263
 21
-21.12099354794699
 31
0.0
100
AcDbText
 73
     1
  0
TEXT
  5
2790
330
2789
100
AcDbEntity
  8
10-TEXT25
 48
10.0
100
AcDbText
 10
548.5363097547418
 20
-48.46225291906828
 30
0.0
 40
2.5
  1
outer edges:
 41
0.8
 11
548.5363097547418
 21
-49.29558625240161
 31
0.0
100
AcDbText
 73
     1
  0
TEXT
  5
2791
330
2789
100
AcDbEntity
  8
10-TEXT25
 48
10.0
100
AcDbText
 10
548.5601271006538
 20
-52.563928794813
 30
0.0
 40
2.5
  1
surface:
 41
0.8
 11
548.5601271006538
 21
-53.39726212814634
 31
0.0
100
AcDbText
 73
     1
  0
TEXT
  5
2792
330
2789
100
AcDbEntity
  8
10-TEXT25
 48
10.0
100
AcDbText
 10
591.6116448674962
 20
-52.563928794813
 30
0.0
 40
2.5
  1
rough
 41
0.8
 11
591.6116448674962
 21
-53.39726212814634
 31
0.0
100
AcDbText
 73
     1
  0
TEXT
  5
2793
330
2789
100
AcDbEntity
  8
10-TEXT25
 48
10.0
100
AcDbText
 10
591.7540425779572
 20
-48.25730142857865
 30
0.0
 40
2.5
  1
deburred
 41
0.8
 11
591.7540425779572
 21
-49.09063476191199
 31
0.0
100
AcDbText
 73
     1
  0
TEXT
  5
2794
330
2789
100
AcDbEntity
  8
10-TEXT25
 48
10.0
100
AcDbText
 10
548.4899201650761
 20
-36.15759154128543
 30
0.0
 40
2.5
  1
manufacturing tolerances:
 41
0.8
 11
548.4899201650761
 21
-36.99092487461877
 31
0.0
100
AcDbText
 73
     1
  0
TEXT
  5
2795
330
2789
100
AcDbEntity
  8
10-TEXT25
 48
10.0
100
AcDbText
 10
548.9820984617731
 20
-24.76053248594619
 30
0.0
 40
2.5
  1
Außenkanten:
 41
0.8
 11
548.9820984617731
 21
-25.59386581927952
 31
0.0
100
AcDbText
 73
     1
  0
TEXT
  5
2796
330
2789
100
AcDbEntity
  8
10-TEXT25
 48
10.0
100
AcDbText
 10
548.6164056204038
 20
-28.84470346532678
 30
0.0
 40
2.5
  1
Oberfläche:
 41
0.8
 11
548.6164056204038
 21
-29.67803679866011
 31
0.0
100
AcDbText
 73
     1
  0
TEXT
  5
2797
330
2789
100
AcDbEntity
  8
10-TEXT25
 48
10.0
100
AcDbText
 10
591.6236703739716
 20
-28.84470346532678
 30
0.0
 40
2.5
  1
roh
 41
0.8
 11
591.6236703739716
 21
-29.67803679866011
 31
0.0
100
AcDbText
 73
     1
  0
TEXT
  5
2798
330
2789
100
AcDbEntity
  8
10-TEXT25
 48
10.0
100
AcDbText
 10
591.7660666491017
 20
-24.55558099545656
 30
0.0
 40
2.5
  1
entgratet
 41
0.8
 11
591.7660666491017
 21
-25.38891432878989
 31
0.0
100
AcDbText
 73
     1
  0
TEXT
  5
2799
330
2789
100
AcDbEntity
  8
10-TEXT25
 48
10.0
100
AcDbText
 10
548.4272240959528
 20
-12.25509558632212
 30
0.0
 40
2.5
  1
Fertigungstoleranzen:
 41
0.8
 11
548.4272240959528
 21
-13.08842891965545
 31
0.0
100
AcDbText
 73
     1
  0
ENDBLK
  5
279B
330
2789
100
AcDbEntity
  8
0
100
AcDbBlockEnd
  0
BLOCK
  5
27A1
330
279C
100
AcDbEntity
  8
0
100
AcDbBlockBegin
  2
A
 70
     0
 10
0.0
 20
0.0
 30
0.0
  3
A
  1

  0
LINE
  5
279D
330
279C
100
AcDbEntity
  8
09-INDIZEES
 62
     6
 48
10.0
100
AcDbLine
 10
3.454424660843073
 20
0.0
 30
0.0
 11
-3.454424660843187
 21
0.0
 31
0.0
  0
LINE
  5
279E
330
279C
100
AcDbEntity
  8
09-INDIZEES
 62
     6
 48
10.0
100
AcDbLine
 10
3.454424660843073
 20
0.0
 30
0.0
 11
-0.0000000000002274
 21
6.913801590111916
 31
0.0
  0
LINE
  5
279F
330
279C
100
AcDbEntity
  8
09-INDIZEES
 62
     6
 48
10.0
100
AcDbLine
 10
-0.0000000000002274
 20
6.913801590111916
 30
0.0
 11
-3.454424660843187
 21
0.0
 31
0.0
  0
MTEXT
  5
27A0
330
279C
100
AcDbEntity
  8
09-INDIZEES
  6
ByBlock
 62
     1
 48
10.0
100
AcDbMText
 10
-0.1249700480950651
 20
2.9110834848791
 30
0.0
 40
3.75
 41
0.0
 71
     5
 72
     5
  1
{a}
 73
     1
 44
1.0
  0
ENDBLK
  5
27A2
330
279C
100
AcDbEntity
  8
0
100
AcDbBlockEnd
  0
ENDSEC
  0
SECTION
  2
ENTITIES
  0
LINE
  5
25EC
330
1503
100
AcDbEntity
  8
03-KONTUR
100
AcDbLine
 10
619.0641171215225
 20
96.0224006318745
 30
0.0
 11
719.0641171215227
 21
96.02240063187439
 31
0.0
  0
LINE
  5
25ED
330
1503
100
AcDbEntity
  8
03-KONTUR
100
AcDbLine
 10
719.0641171215227
 20
96.02240063187439
 30
0.0
 11
719.0641171215222
 21
-3.977599368125538
 31
0.0
  0
LINE
  5
25EE
330
1503
100
AcDbEntity
  8
03-KONTUR
100
AcDbLine
 10
619.0641171215223
 20
-3.977599368125538
 30
0.0
 11
719.0641171215222
 21
-3.977599368125538
 31
0.0
  0
LINE
  5
25EF
330
1503
100
AcDbEntity
  8
03-KONTUR
100
AcDbLine
 10
619.0641171215225
 20
96.0224006318745
 30
0.0
 11
619.0641171215223
 21
-3.977599368125538
 31
0.0
  0
CIRCLE
  5
260A
330
1503
100
AcDbEntity
  8
03-KONTUR
100
AcDbCircle
 10
669.0641171215225
 20
46.02240063187446
 30
0.0
 40
16.5
  0
ENDSEC
  0
SECTION
  2
OBJECTS
  0
DICTIONARY
  5
14F7
330
0
100
AcDbDictionary
281
     1
  3
ACAD_GROUP
350
14F8
  3
ACAD_LAYOUT
350
2776
  3
ACAD_MLINESTYLE
350
14F9
  3
ACAD_PLOTSETTINGS
350
2777
  3
ACAD_PLOTSTYLENAME
350
2774
  0
DICTIONARY
  5
14F8
102
{ACAD_REACTORS
330
14F7
102
}
330
14F7
100
AcDbDictionary
281
     1
  0
DICTIONARY
  5
2776
102
{ACAD_REACTORS
330
14F7
102
}
330
14F7
100
AcDbDictionary
281
     1
  3
Layout1
350
2779
  3
Model
350
2778
  0
DICTIONARY
  5
14F9
102
{ACAD_REACTORS
330
14F7
102
}
330
14F7
100
AcDbDictionary
281
     1
  3
STANDARD
350
1506
  0
DICTIONARY
  5
2777
102
{ACAD_REACTORS
330
14F7
102
}
330
14F7
100
AcDbDictionary
281
     1
  0
ACDBDICTIONARYWDFLT
  5
2774
102
{ACAD_REACTORS
330
14F7
102
}
330
14F7
100
AcDbDictionary
281
     1
  3
Normal
350
2775
100
AcDbDictionaryWithDefault
340
2775
  0
LAYOUT
  5
2779
102
{ACAD_REACTORS
330
2776
102
}
330
2776
100
AcDbPlotSettings
  1

  2
Kyocera Mita FS-1000+
  4

  6

 40
0.0
 41
0.0
 42
0.0
 43
0.0
 44
0.0
 45
0.0
 46
0.0
 47
0.0
 48
0.0
 49
0.0
140
0.0
141
0.0
142
1.0
143
1.0
 70
   688
 72
     0
 73
     0
 74
     5
  7

 75
    16
147
1.0
148
0.0
149
0.0
100
AcDbLayout
  1
Layout1
 70
     1
 71
     1
 10
0.0
 20
0.0
 11
12.0
 21
9.0
 12
0.0
 22
0.0
 32
0.0
 14
1.000000000000000E+20
 24
1.000000000000000E+20
 34
1.000000000000000E+20
 15
-1.000000000000000E+20
 25
-1.000000000000000E+20
 35
-1.000000000000000E+20
146
0.0
 13
0.0
 23
0.0
 33
0.0
 16
1.0
 26
0.0
 36
0.0
 17
0.0
 27
1.0
 37
0.0
 76
     0
330
1500
  0
LAYOUT
  5
2778
102
{ACAD_REACTORS
330
2776
102
}
330
2776
100
AcDbPlotSettings
  1

  2
Kyocera Mita FS-1800
  4
A4
  6

 40
6.805083274841308
 41
5.027085304260253
 42
6.805084228515625
 43
5.027069091796875
 44
209.9733276367187
 45
296.9259948730469
 46
0.0
 47
8.96
 48
543.2162585118873
 49
-136.9929676107041
140
920.5562585118872
141
138.507032389296
142
1.0
143
1.403012661911184
 70
 11956
 72
     1
 73
     1
 74
     4
  7

 75
     0
147
0.7127519424078466
148
-543.2162585118873
149
136.9929676107041
100
AcDbLayout
  1
Model
 70
     1
 71
     0
 10
0.0
 20
0.0
 11
12.0
 21
9.0
 12
0.0
 22
0.0
 32
0.0
 14
0.0
 24
0.0
 34
0.0
 15
0.0
 25
0.0
 35
0.0
146
0.0
 13
0.0
 23
0.0
 33
0.0
 16
1.0
 26
0.0
 36
0.0
 17
0.0
 27
1.0
 37
0.0
 76
     0
330
1503
  0
MLINESTYLE
  5
1506
102
{ACAD_REACTORS
330
14F9
102
}
330
14F9
100
AcDbMlineStyle
  2
STANDARD
 70
     0
  3

 62
     0
 51
90.0
 52
90.0
 71
     2
 49
0.5
 62
   256
  6
BYLAYER
 49
-0.5
 62
   256
  6
BYLAYER
  0
ACDBPLACEHOLDER
  5
2775
102
{ACAD_REACTORS
330
2774
102
}
330
2774
  0
ENDSEC
  0
EOF
